Guitaretab - guitar tabs
Song name
# A B C D E F G H I J K L M N O P Q R S T U V W X Y Z

Fenix Tx - No Lie tab

NO LIE - Fenix TX

Tabbed By: justin 

Intro:
e--------------------------------------------------------------------
b--------------------------------------------------------------------
G---10-10-10-10-10-10-10-10--10-9-7--10--------10-9-7----------------
D----x--x--x--x--x--x--x--x---x-x-x---x---------x-x-x---4------------
A----8--8--8--8--8--8--8--8---8-7-5---8---------8-7-5---4------------
E-------------------------------------------------------2------------

e--------------------------------------------------------------------
b--------------------------------------------------------------------
G--10-------10-9-7----10-------12-10----10-9-7-----------------------
D---x--------x-x-x-----x--------x--x-----x-x-x-----------------------
A---8--------8-7-5-----8-------10--8-----8-7-5-----------------------
E--------------------------------------------------------------------

Verse:
e--------------------------------------------------------------------
b-------------3------------------------------------------------------
G-----5-------3------------------------------------------------------
D-3---5---5---1------------------------------------------------------
A-3---3---5----------------------------------------------------------
E-1-------3----------------------------------------------------------

Chorus:
e--------------------------------------------------------------------
b--------------------------------------------------------------------
G-----5--------------------------------------------------------------
D-3---5---3----------------------------------------------------------
A-3---3---3----------------------------------------------------------
E-1-------1----------------------------------------------------------

Bridge:
e--------------------------------------------------------------------
b--------------------------------------------------------------------
G--7-10-9-7-7-10-9-12-7-10-9-12-14-7-10-9-12-14-7-10-12-14-15--------
D--x--x-x-x-x--x-x--x-x--x-x--x--x-x--x-x--x--x-x--x--x--x--x--------
A--5--8-7-5-5--8-7-10-5--8-7-10-12-5--8-7-10-12-5--8-10-12-13--------
E------------------------------------------------
[ Tab from: http://www.guitaretab.com/f/fenix-tx/27721.html ]
Related for No Lie tab
No Lie chords by Fenix Tx