Guitaretab - guitar tabs
Song name
# A B C D E F G H I J K L M N O P Q R S T U V W X Y Z

Fenix Tx - Flight 6 tab

Fenix TX
Flight 601
TAbbed By: Bash

Intro
|----------------------------------------------------------12----12---------------|
|-9---9---12---12----9---9---12---12----9---9---12---12-------12--------10---10---|
|---9---9----9----9----9---9----9----9----9---9----9----9------------9-----9----9-|
|---------------------------------------------------------------------------------|
|---------------------------------------------------------------------------------|
|---------------------------------------------------------------------------------|

Verse
|----------------------------------------------------------------------|
|----------------------------------------------------------------------|
|-9--9-9-9-9-9-9------------------6--6-6-6-6-6--5--5-5-5-5--4--4-4-4-4-|
|-9--9-9-9-9-9-9--9--9-9-9-9-9-9--6--6-6-6-6-6--5--5-5-5-5--4--4-4-4-4-|
|-7--7-7-7-7-7-7--9--9-9-9-9-9-9--4--4-4-4-4-4--3--3-3-3-3--2--2-2-2-2-|
|-----------------7--7-7-7-7-7-7---------------------------------------|
PM    * * * * * *     * * * * * *     * * * * *     * * * *     * * * * 

Chorus
|-----------------------------------------------------------------|
|-----------------------------------------------------------------|
|-9-9-9-9-9-9-9-----------------6-6-6-6-6-6--5-5-5-5-5--4-4-4-4-4-|
|-9-9-9-9-9-9-9--9-9-9-9-9-9-9--6-6-6-6-6-6--5-5-5-5-5--4-4-4-4-4-|
|-7-7-7-7-7-7-7--9-9-9-9-9-9-9--4-4-4-4-4-4--3-3-3-3-3--2-2-2-2-2-|
|----------------7-7-7-7-7-7-7------------------------------------|

Solo
|------------------------------------------------
|-8/9--9-9-9-9-9-9-9-9-9--8/9--9-9-9-9-9-9-9-9-9-
|-8/9--9-9-9-9-9-9-9-9-9--8/9--9-9-9-9-9-9-9-9-9-
|------------------------------------------------
|------------------------------------------------
|------------------------------------------------

  ------------------------------12-12--12-10-------------
  -8/9--12-12-12-12-12-12-12-12-12-12--------12-10-12-10-
  -8/9---9--9--9--9--9--9--9--9--9--9--------------------
  -------------------------------------------------------
  -------------------------------------------------------
  -------------------------------------------------------
[ Tab from: http://www.guitaretab.com/f/fenix-tx/38675.html ]
  ------------------------------------------------
  -8/9--9-9-9-9-9-9-9-9-9--8/9--9-9-9-9-9-9-9-9-9-
  -8/9--9-9-9-9-9-9-9-9-9--8/9--9-9-9-9-9-9-9-9-9-
  ------------------------------------------------
  ------------------------------------------------
  ------------------------------------------------

  ------------------------------12-12--15-14-12-10----10--|
  -8/9--12-12-12-12-12-12-12-12-12-12--------------12-----|
  -8/9---9--9--9--9--9--9--9--9--9--9---------------------|
  --------------------------------------------------------|
  --------------------------------------------------------|
  --------------------------------------------------------|

Bridge
|-----------------------------------|
|-12-------12-------10-------9------|
|----9--------9--------9-------9----|
|------9--------9--------9-------9--|
|-----------------------------------|
|-----------------------------------|


===

Solo

E-----------------------------------------------------12--10--------------
B-8-^-9-XXXXXXXXX--8-^-9-XXXXXXXX--8-^-12-XXXXXXXXX-----------12--10--12--10---
G-8-^-9-XXXXXXXXX--8-^-9-XXXXXXXX--8-^-12-XXXXXXXXX--------------------
D-------------------------------------------------------
A-------------------------------------------------------
E-------------------------------------------------------

E-------------------------------12--10-----------------------
B-8-^-9XXXXXXXX-8-^-9XXXXXXXXX-----------12--10--12--10--9-----------------------
G-8-^-9XXXXXXXX-8-^-9XXXXXXXXX------------------------------------------------
D--------------------------------------------------------
A--------------------------------------------------------
E--------------------------------------------------------

E-------------------------------------------------------
B-9------9-------12-----------10-----------------
G---9-------9---------9------------9------------------
D-----9--------9----------9------------9--------------
A-------------------------------
E-------------------------------

E------------------------------
B-9----------12---------12--------10-----
G----9-----------9----------9---------9-
D--------9-----------9---------9---------9--
A------------------------------
E------------------------------
Related for Flight 6 tab
Flight 6 chords by Fenix Tx