Guitaretab - guitar tabs
Song name
# A B C D E F G H I J K L M N O P Q R S T U V W X Y Z

Ferdinando Carulli - Study tab

-------------------------------------------------------------------------------
			     Study - Dionisio Aguado
-------------------------------------------------------------------------------
Tabbed by: 
Email:

Tuning: Standard




e|------------------------0------------|
B|--------------1--1---1----3-------1--|
G|----2--2---2-------0---------1--2----|
D|-2-------1---------------------------|
A|----0---------0---------2-------0----|
E|-------------------------------------|
[ Tab from: http://www.guitaretab.com/f/ferdinando-carulli/147496.html ]
e|---------------------------0-|
B|-------------1--1---1-4-4----|
G|---2--2---2-------0---2-2--1-|
D|-2------1-------------3-3--2-| Go back to the beginning and repeat.
A|---0---------0---------------|
E|-----------------------------| 

Then play...

e|-0--1--------0-0------------0-5-------0-1---------|
B|-------3-0-1-----3-0------1-----2-2-3-------0-----|
G|---------------------1--2-------0-0-------2---1-2-|
D|----0------2------------------------3---0-2---2---|
A|-----------3-----2------0-----------------------0-|
E|--------------------------------------------------|

Related for Study tab
Advertisement will be closed in 10 seconds