Song name
# A B C D E F G H I J K L M N O P Q R S T U V W X Y Z

Ferenc Erkel - Himnusz tab

Hungarian National Anthem
composed by Ferenc Erkel, 1844

arranged for guitar, transposed to Bb Major

intro
  *   .   .   .   *   .       .   .   *   .   .   .   *   .   .   .
|-------------1-3-1---_____-------------------------------------------|
|-----------3-------4-4p3h4--34---3---1---1---1-0-1-3-1---------------|
|-3-------1-----3-1-3---------3---4---3---3-------------3-3--23-------|
|-----0-3-----------5-5------45---3---2---1---1-0-1-3-1-0-0--10-------|
|---1---------------6---------6-----------------------1-1-1---1-------|
|---------------------------------3---3---2---1---1-------------------|



  *   .   .   .   *   .   .   .   *   .   .   .   *   .   .   .
|-------------6---1---------------3---1---------------------------|
|-3-----4-6---3---3---4---3-------4---3---4---3---1---3---4-------|
|-3-----5-7---3---3---5---3-------0---1---5---4---0---4---5-------|
|-0-------0---0-------3---3-------1---3---5---3---1---5---5-------|
|-1-----3-------------0---1-----------------------3-------3-------|
|-----------------1---------------------------3-------3-----------|

  *   .   .   .   *   .   .   .   *   .   .   .   *   .   .   .
|-------------8---------------------------------------------------|
|-1-----3-4-------4---3---1-------6---4---3---1-------1---3-------|
|-2-----3-5---8---5---3---2-------7---5---3---2---3---2---3-------|
|-------0---------3---3---3---1---0---5---3---1---3---3---3-------|
|-------1-3---6---0---1-----------8---6-----------5-------1-------|
|-1-------------------------------------------1---6---1-----------|

  *   .   .   .   *   .   .   .   *   .   .   .   *   .   .   .
|-6-----5-3---2---3---5-----------10----8-6---5---6---8---1-------|
|-3-----3-3---3---3---2---3-------6-------3-------3-------1-------|
|-----------------0-------2-------------8-----5-------9---2-------|
|-5-------------------2---4-------8-------3-------3-------3-------|
|-------0-1---3---1---0---5---------------5---6---5---10----------|
|-3-------------------------------6-----8-------------8-----------|

  *   .    .   .   *   .   .   .   *   .   .   .
|-11----10-8---6---5-----3-1-----------------------||
|-8------------8---6-----4-3---4---3---3---1---1-3-||
|-------10-8---0---5-----0-2---5---3---3---3---2---||
|-10---------------3-----------3---3---5---1---1---||
|----------6---7-------------------1---------------||
|-8-----10-----------------------------3-------1---||

repeat Intro

PD. 2001
source: a midi file
Tap to rate this tab
# A B C D E F G H I J K L M N O P Q R S T U V W X Y Z