Song name
# A B C D E F G H I J K L M N O P Q R S T U V W X Y Z

Fernandinho - Uma Nova Histria tab

Uma Nova História
Fernandinho

Tom: A

Introdução: F#m7(11) E5 F#m7(11) E5

E|----------------------|
B|-10-9------10-9-------|
G|------9---------9-----|  (2x)
D|--------9-------------|
A|----------------------|
E|----------------------|

Sai de tua tenda...

E|-------12--------------14--10/9-----------|
B|----10-----10-9-----12--------------------|     (2x)
G|-9--------------11--------------11--9--10-|
D|------------------------------------------|
A|------------------------------------------|
E|------------------------------------------|

(primeira parte)
F#m7(11)            E5               B4
        Sai de tua tenda, Oh! Filho meu
           D5(6/9)
 Te mostrarei as estrelas do céu
F#m7(11)            E5               B4
        Sai de tua tenda, Oh! Filho meu
           D5(6/9)
 Te mostrarei a areia do mar

(segunda parte)
F#m7(11)          E/F#     B4/F#   D6(9)/F#
        Será que podes contar?
F#m7(11)          E/F#       B4/F#
        Será que podes imaginar?
                    D6(9)/F#
Tudo aquilo que sonhei para ti, Filho meu

(pré-refrão)
F#m7(11)                     E                    D5(6/9)
        O que minhas mãos fizeram para ti, filho meu
                 B4          D5(9)
 Minha benção será sobre ti

(refrão)
              A5(9)      D5(9)   E
 Uma nova história Deus tem pra mim
          A5(9)      D5(9)   E
 Um novo tempo Deus tem pra mim
                      A5(9)
 E tudo aquilo que pedido foi
      D5(9)      E                 A   A4
 Ouvirei de sua boca  e te abençoarei

              A5(9)      D5(9)   E
 Uma nova história Deus tem pra mim
          A5(9)      D5(9)   E
 Um novo tempo Deus tem pra mim
                      A5(9)
 E tudo aquilo que pedido foi
      D5(9)      E
 Ouvirei de sua boca  e te abençoarei
Solo:

              D                 E
E|--------------------------------------------|
B|-9/10-10-10-9/10-----10/12-12-12-10/12------|   (2x)
G|-----------------7---------------------9----|
D|--------------------------------------------|
A|--------------------------------------------|
E|--------------------------------------------|

              D                E
E|--------------------------------------------------12---|
B|-9/10-10-10-9/10------9-10-10/12-12-12--10--12----15b--|
G|------------------7------------------------------------|
D|-6/7---7--7-6/7-------6--7--7/9--9--9----7--9----------|
A|------------------5------------------------------------|
E|-------------------------------------------------------|

            D/F#                          E/G#
E|-12/14-14-14-14-16-17------17/19-19-19-19--16----------|
B|-----------------------15----------------------17------|
G|-------------------------------------------------------|
D|-------------------------------------------------------|
A|-------------------------------------------------------|
E|-------------------------------------------------------|

D               A       E
Deus tem o melhor pra mim
D               A       E
Deus tem o melhor pra mim
D           A      E
E o que perdido foi
            D              F#m     E
Não se comparam com o que há de vir

           D           A
Não se comparam com o que há de vir
Tap to rate this tab
# A B C D E F G H I J K L M N O P Q R S T U V W X Y Z