Song name
# A B C D E F G H I J K L M N O P Q R S T U V W X Y Z

Fernandinho - Emanuel tab

Emanuel
Fernandinho

Tom: E 

Intro:E B C#m A

E|-------------------------------------|
B|-------------------------------------|
G|-------------------------------------|
D|-----6--7--6-----6--7----------------|
A|-3/7-----------7---------------------|
E|-------------------------------------|

E|--------------------------------------------------|
B|------------------------------9----------9--------|
G|-9----------9-11-----------11---------------------l
D|---9-9-9--9------9-9-9--9-------9-9-9--9----------|
A|--------------------------------------------------|
E|--------------------------------------------------|

E|-------------------------------------------|
B|-----9---9---9----9-10--9---9---9---9-10-9-|
G|---9---9---9---9------9---9---9------------|
D|-------------------------------------------|
A|-------------------------------------------|
E|-------------------------------------------|


E             B                C#m A
Deixou a Sua glória para estar comigo
E             B            C#m   A
Morreu numa cruz para estar comigo
E         B               C#m   A
Venceu o diabo para estar comigo
E          B       ( E  B9  C#m  A )
O véu se rasgou para estar comigo

       E              B
Maravilhoso, Conselheiro, Deus forte
C#m          A
Príncipe da paz

Solo 2x: C  G9  Am  F


E|--------------------------------------------------|
B|------------------------------9----------9--------|
G|-9----------9-11-----------11---------------------|
D|---9-9-9--9------9-9-9--9-------9-9-9--9----------|
A|--------------------------------------------------|
E|--------------------------------------------------|

E|-------------------------------------------|
B|-----9---9---9----9-10--9---9---9---9-10-9-|
G|---9---9---9---9------9---9---9------------|
D|-------------------------------------------|
A|-------------------------------------------|
E|-------------------------------------------|


       E              B
Maravilhoso, Conselheiro, Deus forte
C#m          A
Príncipe da paz
       E              B
Maravilhoso, Conselheiro, Deus forte
C#m         A
Príncipe da paz
    E        B        C#m  A
Emanuel, Emanuel, Emanuel
Tap to rate this tab
 
# A B C D E F G H I J K L M N O P Q R S T U V W X Y Z