Song name
# A B C D E F G H I J K L M N O P Q R S T U V W X Y Z

Fernando E Sorocaba - Madri tab

Intro:

(part 1)              (part 2)
     G5                   D4
E|-----x-------x----|-----x-------x---------|
B|---3-x-3-3---x-3--|---3-x-3-3---x-3-------|
G|---0-x-2-2h4-x-2--|---0-x-2-2h4-x-0-------|
D|-----x-------x----|-0---x-0-----x---------|
A|-----x-------x----|-----x-------x---------|
E|-3---x-3-----x----|-----x-------x---------|

(part 3)                (part 4)
       C9                  Em
E|-----x-----------x---|-0------------------|
B|---3-x---3-------x---|-0-8-7/3---3--------|
G|---0-x---0-------x-0-|-0-------4----------|
D|-----x-x-----0h2-x---|-2------------------|
A|-3---x-----3-----x---|-2------------------|
E|-----x-----------x---|-0------------------|

    (part 5)             (part 6)
(repeat parts 1, 2 & 3) Em
E|--------------------|-0-------------------|
B|--------------------|-0-3-3/5-3---3---3-0-|
G|--------------------|-0-0-0---2---2h4-2-0-|
D|--------------------|-2---------0-------0-|
A|--------------------|-2-------------------|
E|--------------------|-0-------------------|

Verse 1:
      G5            D5
E|-----x-----x----|-----x-------x---------|
B|---3-x-3-3-x-3--|---3-x-3-----x---------|
G|---0-x-0-0-x-0--|---2-x-2-0h2-x-0-------|
D|-----x-----x----|-0---x-0-----x---x-0---|
A|-----x-----x----|-----x-------x---------|
E|-3---x-3---x----|-----x-------x---------|

   Em7             C9 
E|-----x-----x---|-----x----------------|
B|---3-x-3-3-x-3-|---3-x-3-3-3-------3--|
G|---0-x-0-0-x-0-|---0-x-0-0-0-----0----|
D|-----x-----x---|-----x-2-2-2-0h2------|
A|-----x-----x---|-3---x-3--------------|
E|-0---x-0---x---|-----x----------------|


G5        D5
  Que saudade amor
Em7                          C9
  Estou sabendo que ai na espanha tudo  lindo
G5       D5
  Voc me deixou
Em7                      C9
  E aqui dentro meu corao ficou partido

Pre-Chorus:

       Em7            D/F#
E|-----x-----x----|-----x-----x----|
B|---3-x-3-3-x-3--|---3-x-3-3-x-3--|
G|---0-x-0-0-x-0--|---2-x-2-2-x-2--|
D|-----x-----x----|-----x-----x----|
A|-----x-----x----|-----x-----x----|
E|-0---x-0---x----|-2---x-2---x----|

     C9
E|-----x-----x-------x-------------------|
B|---3-x-3-3-x-3---3-x-------------------|
G|---0-x-0-0-x-0---0-x-------------------|
D|-----x-----x-------x---------5-5h7-----|
A|-3---x-----x---3---x-3-3-5/7-------7\0-|
E|-----x-3---x-------x-------------------|


Em7        D/F#          C9
  Nessa cidade, no vou mais sorrir
Em7          D/F#        C9                        G5
  Que bom seria, se so paulo fosse do lado de madri
      D5        C9
  I    U

Chorus:
G5            D5       C9        Em7       D/F#
  No puedo ms mi corazn, ta doendo aqui na solido
G5            D/F#        C9
  No puedo ms vivir sin ti, volta logo pra so paulo
  Ou eu vou pra madri

(repeat intro 5 & 6)

(repeat verse 1 & 2)

G5              D5
  Que saudade amor
Em7                    C9
  Volta logo pro hemisfrio sul do mundo
G5        D5
  Ficar sem voc
Em7                      C9
  Me mostrou o quanto  bom estarmos juntos
Em7          D/F#           C9
  Sonho to lindo  ter voc aqui
Em7          D/F#        C9                        G5
  Que bom seria, se so paulo fosse do lado de madri
      D5        C9
  I    U

Chorus:
G5            D5       C9        Em7       D/F#
  No puedo ms mi corazn, ta doendo aqui na solido
G5            D/F#        C9
  No puedo ms vivir sin ti, volta logo pra so paulo
  Ou eu vou pra madri

Solo:
E|-2h3-2---2h3-2---2h3-2---2h3-2---------------------|
B|-------3-------3-------3-------3-------------------|
G|---------------------------------------------------|
D|---------------------------------------------------|
A|---------------------------------------------------|
E|---------------------------------------------------|
                   pm...
E|-2-3-5-5/7-------3-3-2-----------------------------|
B|-----------3-3/5-------5-3-5-3---------------------|
G|-------------------------------5-4-5-4-2---2/4-----|
D|-----------------------------------------5---------|
A|---------------------------------------------------|
E|---------------------------------------------------|
E|-2h3-2---2h3-2---2h3-2---2h3-2---------------------|
B|-------3-------3-------3-------3-------------------|
G|---------------------------------------------------|
D|---------------------------------------------------|
A|---------------------------------------------------|
E|---------------------------------------------------|
                     pm....
E|-2-3-5-5/7-8---8-5-3-3-2--------------------------|
B|-------------5-----------5-3-5-3------------------|
G|---------------------------------5-4-2---2---2/4--|
D|---------------------------------------5---5------|
A|--------------------------------------------------|
E|--------------------------------------------------|

(Chorus)

(Ending Solo)

(repeat intro part 1, 2, 3, 4 & 5)

E|-0-----------7-5-3---|
B|-0-3-3/5-3-----------|
G|-0-0-0---2---7-5-4---|
D|-2---------0---------|
A|-2-------------------|
E|-0-------------------|
Tap to rate this tab
# A B C D E F G H I J K L M N O P Q R S T U V W X Y Z