Song name
# A B C D E F G H I J K L M N O P Q R S T U V W X Y Z

Fernando Ortega - Jesus Paid It All tab

"Jesus Paid It All"  by: Chris Tomlin
Tabbed by: Robert Hall

This is a little variation on this song that I put together.  It just serves to
the melody and it sounds good either by itself or singing along with it.  I also tried 
space
tabs along with the rhythm.  Listen to the song to get all the details about the lyrics, 
and verses 2 & 3, etc.  Also, this is just the basic strumming.  It sounds a lot
if you add some embellishments in the strumming pattern.  Enjoy.

Capo 4

Intro:
   G       G/B C       G/B D*      G/B C       G/B
e|-3-3-3-3-3-3-0-0-0-0-3-3---------3-3-0-0-0-0-3-3-|
B|-3-3-3-3-0-0-1-1-1-1-0-0-3-3-3-3-0-0-1-1-1-1-0-0-|
G|-0-0-0-0-0-0-0-0-0-0-0-0-0-0-0-0-0-0-0-0-0-0-0-0-|
D|-0-0-0-0-0-0-2-2-2-2-0-0-2-2-2-2-0-0-2-2-2-2-0-0-|
A|-2-2-2-2-2-2-3-3-3-3-2-2-0-0-0-0-2-2-3-3-3-3-2-2-|
E|-3-3-3-3-----------------3-3-3-3-----------------| x2

Verse:

e|-----3---3-3-3-3-----3---3---3-3-3-3--|
B|-----3---3-3-3-3-----3---3---3-3-3-3--|
G|-----0---0-0-0-0-----0---0---0-0-0-0--|
D|-----0---2-0-0-0-----0---0---0-0-0-0--|
A|---2-2---2-2-2-2-----2---0---0-0-0-2--|
E|-3---3---3-3-3-3-----3---3---3-3-3-3--|
   I   hear...         Thy strength...

e|-----3---3-3-3-3-----3-3-3---3-3-3-3--|
B|-----3---3-3-3-3-----3-3-3---3-3-3-3--|
G|-----0---0-0-0-0-----0-0-0---0-0-0-0--|
D|-----0---2-0-0-0-----0-0-0---0-0-0-0--|
A|---2-2---2-2-2-2-----2-0-2---3-2-0-2--|
E|-3---3---3-3-3-3-----3-3-3---3-3-3-3--|
   Child of...         Find in me...

Chorus:

e|-3---3-3-3-3-------3-3-3-3-3-------3---3-3-3-3-3-3---3-3-3-3-3-3-|
B|-3---3-3-3-3-------3-3-3-3-3-------3---3-3-3-3-3-3---3-3-3-3-3-3-|
G|-0---0-0-0-0-------0-0-0-0-0-------0---0-0-0-0-0-0---0-0-0-0-0-0-|
D|-0---2-0-0-0-------0-2-0-0-0-------0---2-0-0-0-4-2---0-0-0-0-0-0-|
A|-2---2-2-2-2-------2-2-2-2-0-------2---2-2-2-2---2---2-2-3-2-0-2-|
E|-3---3-3-3-3-------3-3-3-3-3-------3---3-3-3-3---3---3-3-3-3-3-3-|
   Je- sus paid...   All to him..    Sin had left..    He washed...

Tag:
   G       G/B C       G/B D*      G/B C       G/B
e|-3-3-3-3-3-3-0-0-0-0-3-3---------3-3-0-0-0-0-3-3-|
B|-3-3-3-3-0-0-1-1-1-1-0-0-3-3-3-3-0-0-1-1-1-1-0-0-|
G|-0-0-0-0-0-0-0-0-0-0-0-0-0-0-0-0-0-0-0-0-0-0-0-0-|
D|-0-0-0-0-0-0-2-2-2-2-0-0-2-2-2-2-0-0-2-2-2-2-0-0-|
A|-2-2-2-2-2-2-3-3-3-3-2-2-0-0-0-0-2-2-3-3-3-3-2-2-|
E|-3-3-3-3-----------------3-3-3-3-----------------|
Oh praise...
Tap to rate this tab
# A B C D E F G H I J K L M N O P Q R S T U V W X Y Z