Song name
# A B C D E F G H I J K L M N O P Q R S T U V W X Y Z

Fernando Sor - Study In C tab

This is an eaasy song that is perfect for beginners. it is played at a slow/fast speed 
is a classical tune. this may not be everyone cup of tea but is a good way to introduce tab.

e--------|--------|-----0-3|-1-0----|--------|---0----|
B-1-0----|-1-0----|-1-3----|-----3--|-1-0----|-1---3-0|
G-----0--|-----0--|--------|-------0|-----0--|--------|
D--------|--------|--------|--------|--------|--------|
A--------|--------|--------|--------|--------|--------|
E--------|--------|--------|--------|--------|--------|

e-------2|-3------|
B---1----|---0----|
G-2------|---0----|.             REPEAT
D-----2--|---0----|.
A--------|--------|
E--------|-----3--|

e  -3---0-3|-1-----1|-0-----0|--------|--------|--------|
B  --------|-----3--|-----1--|-3-0----|-----1--|--------|
G. ---0----|---0----|---0----|-----0--|---0----|---2----|
D. --------|--------|--------|-------3|-2-----2|-3---0-3|
A  --------|--------|--------|--------|--------|--------|
E  --------|--------|--------|--------|--------|--------|

e--------|---0----|
B--------|---1----|
G---0----|---0----|
D-2------|--------|
A-------2|-3----3-|
E-----3--|--------|

thanks,
      *punk-princess*
Tap to rate this tab
 
# A B C D E F G H I J K L M N O P Q R S T U V W X Y Z