Song name
# A B C D E F G H I J K L M N O P Q R S T U V W X Y Z

Ferras - Soul Rock tab

Great Song, will post the rest once I figure it out :)

Intro:

0:00-0:07
\----------------------------------------------------------------/
\----------------------------------------------------------------/
\----------------------------------------------------------------/
\-/12--10--------------------------------------------------------/
\----------12--10--8------12--10~------------8h10--12--10----\8--/
\---------------------10---------------8h10----------------------/

0:07-0:13
\------------------------------/
\------------------------------/
\------------------------------/
\----------------10------------/
\------8h10--12------12\10-8---/
\-8h10-------------------------/

0:13-0:17
\---------------------------------------/
\---------------------------------------/
\---------------------------------------/
\-/12--10---------------------10--------/
\---------12--10--8-----10/12----12\10--/
\--------------------10-----------------/

0:17-0:24
\----------------------------------------------------------------/
\----------------------------------------------------------------/
\----------------------------------------------------------------/
\----------------------------------------------------------------/
\-------8h10--12--15--15\13----13p12-13p12-13p12--10\8-----------/
\--8h10----------------------------------------------------------/




Tap to rate this tab
# A B C D E F G H I J K L M N O P Q R S T U V W X Y Z