Song name
# A B C D E F G H I J K L M N O P Q R S T U V W X Y Z

Ferrer Nino - Le Sud tab

#


Song : Le Sud
Artist : Nino Ferrer
tabbed by Cedric Picard, DESS ISA'97

Thanks to jacob@etu.univ-compiegne.fr for the lyrics.


Here's the only thing I play all along the song.

  C                     Am7              F
e-3-----3------1p0------3-----3----------------1-
B-----1------0-----3-1-------------3p1-0-----1---
G---0-----------------------2----0-------2-------
D-------------------------2----------------3-----
A-3-------2-------------0------------------------
E------------------------------3---2-----1-------

  Fm      C       G       C/G
e-------1-------0-------3-------------
B-----1-------1-------0---------------
G---1-------0-------0---------------0-
D-3-----------------------------0h2---
A---------3-----------------0h3-------
E-1---------------3-------3-----------

C'est un endroit qui ressemble a la Louisiane
A l'Italie
Il y a du linge etendu sur la terrasse
Et c'est joli

Chorus:

On dirait le Sud
Le temps dure longtemps
Et la vie surement
Plus d'un million d'annees
Et toujours en ete

Y'a plein d'enfants qui se roulent sur la pelouse
Y'a plein de chiens
Y'a m?me un chat, une tortue, des poissons rouges
Il ne manque rien

Chorus

Un jour ou l'autre, il faudra qu'il y ait la guerre
On le sait bien
On n'aime pas ?a, mais on ne sait pas quoi faire
On dit c'est le destin

Tant pis pour le Sud
C'?tait pourtant bien
On aurait pu vivre
Plus d'un million d'annees
Et toujours en ete


*** La musique francaise, c'est sur fr.rec.musiques ***
Tap to rate this tab
# A B C D E F G H I J K L M N O P Q R S T U V W X Y Z