Guitaretab - guitar tabs
Song name
# A B C D E F G H I J K L M N O P Q R S T U V W X Y Z

Fertig Los - Ein Geheimnis tab

Interpret: Fertig,los
Song     : Ein Geheimnis
Album    : Das Herz ist ein Sammler

Verse: Alle 8 mal spielen!
e:--------------|
h:--------------|
G:----8--10--6--|
D:-6--8--10--6--|  3x
A:-6--6--8---4--|
E:-4------------|

Refrain:
Dasselbe wie in der Strophe aber 2 Mal

Verse
[ Tab from: http://www.guitaretab.com/f/fertig-los/175358.html ]
Refrain
Post Chorus: Selben akkorde wie bei dem 2. Refrain (siehe unten) nur mit Wah-effekt

Bridge:
e:-6---8--10--6--|
h:-6---8--11--8--|
G:-7--10--12--8--| Alle einmal Anschlagen
D:---------------|
A:---------------|
E:---------------|


Dann kommt ein neuer Refrain:
e:----------------|
h:----------------|
G:----10--12--8---|
D:-8---8--10--8---|
A:-8---8--10--6---| 2x
E:-6--------------|

Dann noch vier mal den Post-Chorus und auf
8 enden
8
6
Related for Ein Geheimnis tab