Song name
# A B C D E F G H I J K L M N O P Q R S T U V W X Y Z

Feuerschwanz - Am Feuer tab

Title: Am Feuer
Artist: Feuerschwanz



Intro and Verse
E|---------------------|---------------------|---------------------|---------------------|
B|---------------------|---------------------|---------------------|---------------------|
G|---------------------|---------------------|---------------------|------0--------------|
D|---------------------|-0-------------------|-0-------------------|-2---------2---------|
A|----------------2----|------0---------0----|------0---------2----|---------------------|
E|-0----2----3---------|-----------2---------|-----------0---------|---------------------|


E|---------------------|---------------------|---------------------|---------------------|
B|---------------------|---------------------|---------------------|---------------------|
G|---------------------|---------------------|---------------------|------0--------------|
D|---------------------|-0-------------------|-0-------------------|-2---------2---------|
A|----------------2----|------0---------0----|------0---------2----|----------------0----|
E|-0----2----3---------|-----------2---------|-----------0---------|---------------------|


E|---------------------|---------------------|---------------------|---------------------|
B|---------------------|---------------------|----------------1----|---------------------|
G|----------------0----|----------------0----|-----------2---------|-2-------------------|
D|-----------2---------|-2---------0---------|------2--------------|---------------------|
A|-2----3--------------|------2--------------|-0-------------------|------0----2----3----|
E|---------------------|---------------------|---------------------|---------------------|


E|---------------------|---------------------|---------------------|---------------------|
B|---------------------|---------------------|---------------------|---------------------|
G|------0--------------|------0--------------|-0----2----0---------|---------------------|
D|-2---------2---------|-0--------------0----|----------------0----|-4----5----4----5\---|
A|----------------2----|-----------3---------|---------------------|---------------------|
E|---------------------|---------------------|---------------------|---------------------|


E|---------------------|
B|---------------------|
G|---------------------|
D|-4--p0---------------|
A|---------------------|
E|---------------------|




Chorus

E|---------------------|---------------------|---------------------|
B|---------------------|---------------------|---------------------|
G|---------------------|---------------------|---------------------|
D|-----------0---------|-----------0---------|-----------2---------|
A|------2---------2----|------0---------0----|------2---------2----|
E|-3-------------------|-2-------------------|-0-------------------|


E|---------------------|---------------------|---------------------|---------------------|
B|---------------------|---------------------|---------------------|---------------------|
G|-0-------------------|-----------0---------|-----------0---------|-----------2---------|
D|------2--------------|------2---------2----|------0---------0----|------2---------2----|
A|-----------2----0----|-3-------------------|-2-------------------|-0-------------------|
E|---------------------|---------------------|---------------------|---------------------|


E|---------------------|---------------------|---------------------|---------------------|
B|-1-------------------|---------------------|---------------------|---------------------|
G|------2--------------|------0--------------|------0--------------|-0----2----0---------|
D|-----------2---------|-2---------2---------|-0--------------0----|----------------0----|
A|----------------3----|----------------2----|-----------3---------|---------------------|
E|---------------------|---------------------|---------------------|---------------------|


E|---------------------|---------------------|
B|---------------------|---------------------|
G|---------------------|---------------------|
D|-4----5----4----5\---|-4---p0--------------|
A|---------------------|---------------------|
E|---------------------|---------------------|

It's one of my first tab. I hope it's nearly correct..
Have fun ;)
Tap to rate this tab
 
# A B C D E F G H I J K L M N O P Q R S T U V W X Y Z