Song name
# A B C D E F G H I J K L M N O P Q R S T U V W X Y Z

Fiction Family - When Shes Near tab

Fiction Family
When She’s Near
Fiction Family -- 2009

http://fictionfamily.com/

Tuning - Standard (E A D G B E)
*Chords are listed at end of song

Intro - 2x                     
E|---------------------------------------------------------------|
B|-2-----0---------2-----0---------2-----0---------1-----0-------|
G|---2-----2---2-----2-----2---2-----2-----2---2-----2-----2---2-|
D|---------------------------------------------------------------|
A|-----0-----0---------0-----0---------0-----0---------0-----0---|
E|---------------------------------------------------------------|

Verse 1 - 2x
E|------------------------------------------------------------------------|
B|------------------------------------------------------------------------|
G|-----0--------0--------0--------0--------0--------0--------0--------0---|
D|---2---2----2---2----2---2----3---3----2---2----2---2----0---0----0---0-|
A|-4--------3--------4--------5--------4--------3--------2----------------|
E|----------------------------------------------------------------3-------|

Chorus
A5         C#5      F#5        C#5*
When she's near the New Year's here 
             A5        F5*         C5         E5
And there is not a resolution that I can't do 
  A5         C#5     F#5        C#5*
I see things clearly when she's near me 
           A5              F5            
When she's near me all the world is new 

Interlude - Same as intro

Verse 2 - Same as Verse 1

Chorus

Bridge 
Am  C       D/F#             Em   D/F#   C     
I'm waiting for the day when I am on her mind 

She's on mine 
Am  C       D/F#             Em        D/F#   C      D7(no5)   
I'm waiting for the day when love's no longer blind, blind 

E|----------------------------------------------------|
B|----------------------------------------------------|
G|-1------------1------------1------------0-----------|
D|---2---4---4----2---4---4----2---4---4----2---4---4-|
A|----------------------------------------------------|
E|-----0---0--------0---0--------0---0--------0---0---|

E
When she's near, when she's near

Chorus
A5         C#5      F#5        C#5*
When she's near the New Year's here 
             A5        F5*         C5         E5
And there is not a resolution that I can't do 
  A5         C#5     F#5        C#5*
I see things clearly when she's near me 
           A5              F5       G5     
When she's near me all the world is new 
           F5               
When she's near me all the world is new

Outro - Same as Intro 

*Chords Used
   A5  C#5  F#5  C#5*  F5*  C5  E5  F5  G5  
E|----------------------------------------|
B|----------------------------------------|
G|----------11----6---10----5---9---------|
D|-7---11---11----6---10----5---9---3---5-|
A|-7---11----9----4----8----3---7---3---5-|
E|-5----9---------------------------1---3-|
  
   Am  C   D/F#  Em  D7(no5)     
E|---------------------|
B|-1---1----3--------3-|
G|-2---0----0----0---5-|
D|-2---2----0----2---4-|
A|-0---3----x----2---5-|
E|----------2----0-----|
Tap to rate this tab
 
# A B C D E F G H I J K L M N O P Q R S T U V W X Y Z