Guitaretab - guitar tabs
Song name
# A B C D E F G H I J K L M N O P Q R S T U V W X Y Z

Fiction Family - We Ride tab

Fiction Family
We Ride
Fiction Family -- 2009

Guitar 1: Standard (E A D G B E) - Capo 10 (Notes relative to capo)
Guitar 2: Standard (E A D G B E) - No Capo 
Guitar 3: Standard (E A D G B E) - No Capo  
Guitar 4: Standard (E A D G B E) - No Capo  

Guitar 1 - Intro/Verse 1&2/Chorus 1&2
e|----------------------------------|
B|--3---3---3---3----3---3---3---3--|
G|--0h2-0---0---0----0h2-0---0---0--|
D|------0h2--------------0h2--------|
A|------------3---2----------3---2--|
E|----------------------------------|

Guitar 2 - Intro/Verse 1&2/Chorus1&2
e|------------------------------------------------------|
B|--------13-----------13-----------13-----------13-----|
G|-----12----12-----12----12-----12----12-----12----12--|
D|--10-----------10-----------10-----------10-----------|
A|------------------------------------------------------|
E|------------------------------------------------------|

Guitar 3 (Banjo?) - Chorus 1&2 
e|---------------------|
B|--------15-------15--|
G|--12-12----12-12-----|
D|---------------------|
A|---------------------|
E|---------------------|
[ Tab from: http://www.guitaretab.com/f/fiction-family/176937.html ]
Guitar 4 (Bass?) - Verse 2/Chorus 2
e|------------------------------------------------------|
B|------------------------------------------------------|
G|------------------------------------------------------|
D|------------------------------------------------------|
A|--3h5----------3h5----------3h5----------3h5----------|
E|------3h6-3h5------3h6-3h5------3h6-3h5------3h6-3h5--|

Intro

Verse 1 
Sun rising over troubled waters 
Over troubled fathers of the sons 
Of sun and sand 
Steady now, you're the loosest cannon 
Not yet a man, but we're not children 
We're not kids anymore 

Chorus
And we ride 
We ride 
We ride 
Down these living seas 
Down these living seas 
Down these living seas 

Verse 2
The winter comes 
And the deep is free 
And turn clever thieves 
To steal the breath from angry seas 
Hold me down where blood meets water 
Where time is black 
And white bright blue until you breathe 
Breathe 

Chorus 2
And we ride 
We ride 
We ride 
Down these living seas 
Down these living seas 
Down these living seas
Down these living seas
Down these living seas 

Outro
A bunch of nonsense!!
Related for We Ride tab
Advertisement will be closed in 10 seconds