Fiction Family - We Ride tab

-------------------------------------------------------------------------------
			     We Ride - Fiction Family
-------------------------------------------------------------------------------
Tabbed by: Alpha61693 - Based on tab by TIMAY21
Email: Alpha61693@yahoo.com

Tuning: Standard (EADGBe): Capo 10th fret

The other tab had basically the right notes, just written a little off, so I fixed 
it to be easier to understand. :)
Credit and kudos to TIMAY21 for the original tab.


Guitar 1 - Capo 10 - 

e|---------------------------------------------------------------------------|
B|----3--------3------3-----3------3--------3------3-----3-------------------|
G|----0h2------0------0-----0------0h2------0------0-----0-------------------|
D|--0------0h2---0---------------0------0h2---0------------------------------|
A|-----------------3-----2----------------------3-----2----------------------|
E|---------------------------------------------------------------------------|

************************************

| /   slide up
| \   slide down
| h   hammer-on
| p   pull-off
| ~   vibrato
| +   harmonic
| x   Mute note
| b   Bend
| pb  Pre-bend
| br  Bend release
| pbr Pre-bend release
| brb Bend release bend

************************************
Tap to rate this tab
 
# A B C D E F G H I J K L M N O P Q R S T U V W X Y Z