Song name
# A B C D E F G H I J K L M N O P Q R S T U V W X Y Z

Fiction Family - Betrayal Live tab

-----------------------------------------------------------------------------
                                 BETRAYAL                 FICTION FAMILY
-----------------------------------------------------------------------------

Tabbed by:hurricaneherman
Tuning:Standard

I tabbed this from a download on Land Of The Broken Hearts.com. I'm not sure 
if it is like this in the actual recording, but this tab is fun for playing solo.
I tabbed it for finger picking.

~INTRO~

e|---------------------------------------------------------------|
B|------3-------3-------3-------3-------3-------3------3-------3-|
G|----------2---------------2---------------2--------------2-----|
D|0---------------0---------------0---------------0--------------|
A|---------------------------------------------------------------|
E|---------------------------------------------------------------|
Anyways this is a song called Betrayal and it's a good string changing tune
e|--------------------------------|
B|------3-------3-------3-------3-|
G|----2-----2---------2-----2-----|
D|0---------------0---------------|
A|--------------------------------|
E|--------------------------------|

~VERSE 1~

e|----------------------------------------------------------------|
B|------3-------3-------3-------3-------3-------3-------3-------3-|
G|----2-----2---------2-----2---------2-----2---------2-----2-----|
D|0---------------0---------------0---------------0---------------|X[2]
A|----------------------------------------------------------------|
E|----------------------------------------------------------------|
            I don't remember much about that night
         But I'm pretty sure it rained the day I died
e|----------------------------------------------------------------|
B|------3-------3-------3-------3-------3-------3-------3-------3-|
G|----2-------2-------2-----2---------2-------2-------2-----2-----|
D|----------------0-------------------------------0---------------|
A|--------0-------------------------------0-----------------------|
E|3-------------------------------3-------------------------------|
              I think it rained I think it rained
e|----------------------------------------------------------------|
B|------3-------3-----------------------3-------3-------3-------3-|
G|----2-----2-------------------------2-----2---------2-----2-----|
D|--------------------------------0---------------0---------------|
A|----------------2-------0---------------------------------------|
E|3---------------------------------------------------------------|
           I'm pretty sure it rained the day I died

~VERSE 2~

Guitar repeats verse 1 with these lyrics.

You and I were always closest friends,
It's women that make enemies of men,
A pretty face a pretty face,
A pretty face would one day do me in,

~VERSE 3~

Guitar repeats verse 1 with these lyrics.

Her eyes were like the winter when she goes,
holding secrets only winter knows,
And winter knows winter knows,
Winter's seen the wolves in women's clothes,

~VERSE 4~

Guitar repeats verse 1 with these lyrics.

She came to me in middle afternoon,
We held each other close the whole night through,
The love was blind love is blind,
I never saw her let you in the room,

~BRIDGE~

e|----------------------------------------------------------------|
B|------3-----3---------2---------------7---------------0---------|
G|----------2---------------2---------------7---------------0-----|
D|----------------------------0-----------------0-----------------|
A|/2--------------0--------------/5-------------------------------|
E|------------------------------------------------3-------------3-|
                     Someone always wins
e|----------------------------------------------------------------|
B|--------------------------------------3---------------2---------|
G|------2-----2---------2-----2-------------2---------------2-----|
D|----------0---------------0-----------------2---------------2---|
A|----------------2---------------0---------------0---------------|
E|2---------------------------------------------------------------|
                  And then they write a book
e|----------------------------------------------------------------|
B|----3-----3---------2-----2---------------------------0---------|
G|------2-----2---------2-----------------------------------0-----|
D|----------------------------0-----------------------------------|
A|2---------------0-----------------------------------------------|
E|------------------------------------------------3---------------|
                      I sing my defense
e|----------------------------------------------------------------|
B|----------------------------------------------------------------|
G|------3-----3---------2-----2---------2-----2---------0-----0---|
D|----------0---------------0---------------0---------------0-----|
A|1---------------0-----------------------------------------------|
E|--------------------------------1---------------0---------------|
                  Fingering a different crook
e|----------------------------------------------------------------|
B|------3---------------3---------------2-------------------------|
G|----------2---------------2---------------2---------------------|
D|------------2---------------2---------------2-------------------|
A|0---------------0---------------0---------------0---------------|
E|----------------------------------------------------------------|

~VERSE 5~

Guitar repeats verse 1 with these lyrics.

A gunshot was the only word you said,
And all of my defenses came out red,
Love was red love is red,
She left with you you left me lying dead,

~VERSE 6~

e|0-------------------------------0-------------------------------|
B|3-------------------------------3-------------------------------|
G|2-------------------------------2-------------------------------|
D|0-------------------------------0-------------------------------|
A|----------------------------------------------------------------|
E|----------------------------------------------------------------|
           So I watched her as you put me in the dirt
e|0-------------------------------0-------------------------------|
B|3-------------------------------3-------------------------------|
G|2-------------------------------2-------------------------------|
D|0-------------------------------0-------------------------------|
A|----------------------------------------------------------------|
E|----------------------------------------------------------------|
            She had my wallet tucked inside her skirt
e|----------------------------------------------------------------|
B|------3-------3-------3-------3-------3-------3-------3-------3-|
G|----2-------2-------2-----2---------2-------2-------2-----2-----|
D|----------------0-------------------------------0---------------|
A|--------0-------------------------------0-----------------------|
E|3-------------------------------3-------------------------------|
                   I went numb I went numb
e|----------------------------------------------------------------|2-|
B|------3-----3-------3-----3---------3---------3---------3-----3-|3-|
G|----2-----2-------2-----2---------2---------2---------2-----2---|2-|
D|0-------------0---------------------------------0---------------|0-|
A|--------------------------------------0-------------------------|--|
E|----------------------------3-----------------------------------|--|
=============================================================================
I hope you enjoyed this tab and that it was easy to follow. If you find any
mistakes, you can leave a comment so I can fix it.

Peace, Love, I'm out.
Tap to rate this tab
 
# A B C D E F G H I J K L M N O P Q R S T U V W X Y Z