Fiction Family - We Ride tab

-----------------------------------------------------------------------------
                                 WE RIDE               FICTION FAMILY
-----------------------------------------------------------------------------

Tabbed by:hurricaneherman

Acoustic Guitar 1:Standard Tuning Capo 10th
Acoustic Guitar 2:Standard Tuning
Electric Guitar 1:Standard Tuning

This song is really simple once you get the first riff down, because that's
basically the whole song.

~INTRO~

 |acoustic 1|
e|----------------------------------------------------------------|
B|--------3---------------3---------------3---------------3-------|
G|0-------0-h-2-----------0---------------0---------------0-------|
D|0---------------0-h-2-------0-----------------------------------|X[6]
A|--------------------------------3----------(3)--2---------------|
E|----------------------------------------------------------------|
 |acoustic 2|(comes in after acoustic 1 goes through it twice)    |
e|--------------------8-------------------------------------------|
B|---(8)----------8-------------------8---------------8-----------|
G|--------5-h-7-------------------5---------------5---------------|
D|5-----------------------7-h-8-----------5-h-7-----------5-h-7---|X[4]
A|----------------------------------------------------------------|
E|----------------------------------------------------------------|

~VERSE 1~

 |acoustic 1|
e|----------------------------------------------------------------|
B|--------3---------------3---------------3---------------3-------|
G|0-------0-h-2-----------0---------------0---------------0-------|
D|0---------------0-h-2-------0-----------------------------------|X[8]
A|--------------------------------3----------(3)--2---------------|
E|----------------------------------------------------------------|
 |acoustic 2|                                                     |
e|--------------------8-------------------------------------------|
B|----8-----------8-------------------8---------------8-----------|
G|--------5-h-7-------------------5---------------5---------------|
D|5-----------------------7-h-8-----------5-h-7-----------5-h-7---|X[8]
A|----------------------------------------------------------------|
E|----------------------------------------------------------------|
Sunrise over troubled waters over troubled fathers of the sons of sun and
                                  Sand
steady now you're the loosest cannon not yet a man but we're not children
                         We're not kids anymore

~CHORUS 1~

 |acoustic 1|
e|----------------------------------------------------------------|
B|--------3---------------3---------------3---------------3-------|
G|0-------0-h-2-----------0---------------0---------------0-------|
D|0---------------0-h-2-------0-----------------------------------|X[6]
A|--------------------------------3----------(3)--2---------------|
E|----------------------------------------------------------------|
 |acoustic 2|                                                     |
e|--------------------8-------------------------------------------|
B|----8-----------8-------------------8---------------8-----------|
G|--------5-h-7-------------------5---------------5---------------|
D|5-----------------------7-h-8-----------5-h-7-----------5-h-7---|X[6]
A|----------------------------------------------------------------|
E|----------------------------------------------------------------|
And we ride we ride we ride down these living seas down these living seas
                          Down these living seas

~VERSE 2~

Repeat verse 1 with these lyrics.

The winter comes and the deepest freed
We turn clever thieves to steal the breath of angry seas
Hold me down where blood meets water where time is black
And white bright blue until you breathe breathe

~CHORUS 2~

 |acoustic 1|
e|----------------------------------------------------------------|    |----|
B|--------3---------------3---------------3---------------3-------|    |----|
G|0-------0-h-2-----------0---------------0---------------0-------|    |0---|
D|0---------------0-h-2-------0-----------------------------------|X[7]|0---|
A|--------------------------------3----------(3)--2---------------|    |----|
E|----------------------------------------------------------------|    |----|
 |acoustic 2|                                                     |    |    |
e|--------------------8-------------------------------------------|    |----|
B|----8-----------8-------------------8---------------8-----------|    |----|
G|--------5-h-7-------------------5---------------5---------------|    |----|
D|5-----------------------7-h-8-----------5-h-7-----------5-h-7---|X[7]|5---|
A|----------------------------------------------------------------|    |----|
E|----------------------------------------------------------------|    |----|
And we ride we ride we ride down these living seas down these living seas
   Down these living seas down these living seas down these living seas

~OUTRO~

 |electric|
e|----------------------------------------------------------------|
B|----------------------------------------------------------------|
G|5~--~--~--~--~--5~~~~~~~~-~-~-~-5~---~---~---~--5~~~~~~~~-~-~-~-|
D|5~--~--~--~--~--5~~~~~~~~-~-~-~-5~---~---~---~--5~~~~~~~~-~-~-~-|
A|3~--~--~--~--~--3~~~~~~~~-~-~-~-3~---~---~---~--3~~~~~~~~-~-~-~-|
E|----------------------------------------------------------------|

I'm pretty sure they're using a wha pedal but it might just be computer
generated.

 |acoustic 2|
e|------------------------------------|
B|---------rake-----------------------|
G|----x-x---------x-x-----------------|
D|--x-----x-----x-----x---scrape------|
A|x---------x-x---------x-x---/---\---|
E|------------------------------------|

I'm not sure about this acoustic guitar, but there is something that sounds
like this. You can play it if you want to.

 |electric|
e|------------------------------------|
B|------------------------------------|
G|------------------------------------|
D|5---~---~-~-~~~~~-~-~---~---~-------|more wha
A|------------------------------------|
E|------------------------------------|

=============================================================================
h = hammer on
~ = vibrato
/ = slide up
\ = slide down

I hope you enjoyed this tab, and that it was easy to follow. If you did enjoy
it, a rating would be deeply appreciated. Thank you.

Peace, Love, I'm out.
Tap to rate this tab
 
# A B C D E F G H I J K L M N O P Q R S T U V W X Y Z