Fiction Family - Throw It Away tab

-----------------------------------------------------------------------------
                             THROW IT AWAY                FICTION FAMILY
-----------------------------------------------------------------------------

Tabbed by:hurricaneherman
Tuning:Capo 3rd

I'm trying to tab the whole song but I'm having a hard time defining the
notes beyond the intro, so I'm just putting this up for now.

e|--------------------------------|
B|--------------------------------|
G|--------------------------------|
D|1-/-2-/-4-------5---------------|
A|2---------------7---------------|
E|2---------------7---------------|

e|----------------------------------------------------------------|
B|----------------------------------------------------------------|
G|------4-------4-------4-------4-------2-------2-------2-------2-|
D|--5-------5-------5-------5-------4-------4-------4-------4-----|
A|----------------------------------------------------------------|
E|0---0---0---0---0---0---0---0---0---0---0---0---0---0---0---0---|

e|----------------------------------------------------------------|
B|----------------------------------------------------------------|
G|------2-------2-------2-------2-------0-------0-------1-------1-|
D|--1-------1-------1-------1-------2-------2-------2-------2-----|
A|----------------------------------------------------------------|
E|0---0---0---0---0---0---0---0---0---0---0---0---0---0---0---0---|

e|----------------------------------------------------------------|
B|----------------------------------------------------------------|
G|------4-------4-------4-------4-------2-------2-------2-------2-|
D|--5-------5-------5-------5-------4-------4-------4-------4-----|
A|----------------------------------------------------------------|
E|0---0---0---0---0---0---0---0---0---0---0---0---0---0---0---0---|

e|----------------------------------------------------------------|
B|----------------------------------------------------------------|
G|------2-------2-------2-------2-------0-------0-------0-------0-|
D|--1-------1-------1-------1-------2-------2-------2-------2-----|
A|----------------------------------------------------------------|
E|0---0---0---0---0---0---0---0---0---0---0---0---0---0---0---0---|

=============================================================================
I hope this tab helps.

Peace, Love, I'm out.
Tap to rate this tab
 
# A B C D E F G H I J K L M N O P Q R S T U V W X Y Z