Song name
# A B C D E F G H I J K L M N O P Q R S T U V W X Y Z

Fiction Family - War In My Blood tab

-----------------------------------------------------------------------------
                           WAR IN MY BLOOD                 FICTION FAMILY
-----------------------------------------------------------------------------

Tabbed by:hurricaneherman

Acoustic Guitar 1:Capo 2nd
Acoustic guitar 2:Capo 2nd


~INTRO~


 |acoustic 1|
e|----------------------------------------------------------------|
B|----1-------1-----------1-----------1-------1-----------1-------|
G|---(0)-----0----0---0h2---2p0------(0)-----0----0---0h2---2p0---|
D|--------0h2-----------------------------0h2---------------------|X[2]
A|3-------------------------------3-------------------------------|
E|----------------------------------------------------------------|


~VERSE 1~

 
 |acoustic 1|
e|------0---------------------------------------------------------|
B|-----------1----------1-----------------3-------5-------3-------|
G|------------0--------------0h2--------0--------------------0----|
D|3---------------3---------------5-----------5-------5-------0---|
A|----------------------------------------------------------------|
E|----------------------------------------------------------------|
         I've got a girl she taste like rain on my tongue
 |acoustic 1| 
e|----------------------------------------------------------------|
B|----1-------1-----------1-----------1-------1-----------1-------|
G|---(0)-----0----0---0h2---2p0------(0)-----0----0---0h2---2p0---|
D|--------0h2-----------------------------0h2---------------------|
A|3-------------------------------3-------------------------------|
E|----------------------------------------------------------------|

 |acoustic 1|
e|------0---------------------------------------------------------|
B|-----------1----------1-----------------3-------5-------3-------|
G|------------0--------------0h2--------0--------------------0----|
D|3---------------3---------------5-----------5-------5-------0---|
A|----------------------------------------------------------------|
E|----------------------------------------------------------------|
  She's got the moon in her hips and her eyes burn up like the sun
 |acoustic 1|
e|----------------------------------------------------------------|
B|----1-------1-----------1-----------1-------1-------------------|
G|---(0)-----0----0---0h2---2p0------(0)-----0---0h2--------------|
D|--------0h2-----------------------------0h2---------------------|
A|3-------------------------------3-----------------------3---2---|
E|----------------------------------------------------------------|


~CHORUS 1~

  Am              Em              F               C
 |acoustic 1|
e|----------------------------------------------------------------|
B|------1---------------0---------------1---------------1---------|
G|-----------2---------------0---------------2---------------0----|
D|------------2---------------2---------------3---------------2---|
A|0-----------------------------------------------3---------------|
E|----------------0---------------1-------------------------------|
         When I'm gone from my girl when I leave her alone
  F               C               G
 |acoustic 1|
e|----------------------------------------------------------------|
B|------1---------------1---------------0---------------0---------|
G|-----------2---------------0---------------0---------------0----|
D|------------3---------------2---------------0---------------0---|
A|----------------3-----------------------------------------------|
E|1-------------------------------3---------------3---------------|
            There ain't nothing that I'm running from
  G5
 |acoustic 1|
e|--------------------------------|
B|------3---------------3---------|
G|-----------0---------------0----|
D|------------0---------------0---|
A|--------------------------------|
E|3---------------3---------------|

  F               G               F               G
 |acoustic 1|
e|----------------------------------------------------------------|
B|------1---------------0---------------1-------------0-----------|
G|-----------2---------------0---------------2-----------0--------|
D|------------3---------------0---------------3-------------------|
A|--------------------------------------------------------0---2---|
E|1---------------3---------------1---------------3---------------|
       There's war in my blood I've still got wars to be won


~INTERLUDE 1~


 |acoustic 1|
e|----------------------------------------------------------------|
B|----1-------1-----------1-----------1-------1-----------1-------|
G|---(0)-----0----0---0h2---2p0------(0)-----0----0---0h2---2p0---|
D|--------0h2-----------------------------0h2---------------------|
A|3-------------------------------3-------------------------------|
E|----------------------------------------------------------------|


~VERSE 2~


 |acoustic 1|
e|------0---------------------------------------------------------|
B|-----------1----------1-----------------3-------5-------3-------|
G|------------0--------------0h2--------0--------------------0----|
D|3---------------3---------------5-----------5-------5-------0---|
A|----------------------------------------------------------------|
E|----------------------------------------------------------------|
 |acoustic 2|                                                     |
e|1-------------------------------3-------------------------------|
B|1-------------------------------3-------------------------------|
G|2-------------------------------4-------------------------------|
D|3-------------------------------5-------------------------------|
A|----------------------------------------------------------------|
E|----------------------------------------------------------------|
  My baby is soft and sweet somewhere between a flower and a gun
 |acoustic 1|
e|----------------------------------------------------------------|
B|----1-------1-----------1-----------1-------1-----------1-------|
G|---(0)-----0----0---0h2---2p0------(0)-----0----0---0h2---2p0---|
D|--------0h2-----------------------------0h2---------------------|
A|3-------------------------------3-------------------------------|
E|----------------------------------------------------------------|
 |acoustic 2|                                                     |
e|--8---5---------------------------8---5-------------------------|
B|----------8-------------5h8---------------8-------------5h8-----|
G|--------------0-----5h7-----------------------0-----5h7---------|
D|----------------------------------------------------------------|
A|----------------------------------------------------------------|
E|----------------------------------------------------------------|

 |acoustic 1|
e|------0---------------------------------------------------------|
B|-----------1----------1-----------------3-------5-------3-------|
G|------------0--------------0h2--------0--------------------0----|
D|3---------------3---------------5-----------5-------5-------0---|
A|----------------------------------------------------------------|
E|----------------------------------------------------------------|
 |acoustic 2|                                                     |
e|----5---------------5---------------5---------------5-----------|
B|--------8---------------8---------------8---------------8-------|
G|0---------------0---------------0---------------0---------------|
D|----------------------------------------------------------------|
A|----------------------------------------------------------------|
E|----------------------------------------------------------------|
   And where my girl is now someday that's where I want to be from
 |acoustic 1|
e|----------------------------------------------------------------|
B|----1-------1-----------1-----------1-------1-------------------|
G|---(0)-----0----0---0h2---2p0------(0)-----0---0h2--------------|
D|--------0h2-----------------------------0h2---------------------|
A|3-------------------------------3-----------------------3---2---|
E|----------------------------------------------------------------|
 |acoustic 2|                                                     |
e|--8---5---------------------------8---5-------------------------|
B|----------8-------------5h8---------------8-------------5---8---|
G|--------------0-----5h7-----------------------0-----5h7---------|
D|----------------------------------------------------------------|
A|----------------------------------------------------------------|
E|----------------------------------------------------------------|


~CHORUS 2~


  Am              Em              F               C
 |acoustic 1|
e|----------------------------------------------------------------|
B|------1---------------0---------------1---------------1---------|
G|-----------2---------------0---------------2---------------0----|
D|------------2---------------2---------------3---------------2---|
A|0-----------------------------------------------3---------------|
E|----------------0---------------1-------------------------------|
 |acoustic 2|                                                     |
e|8-----------8---7-----------7---5-----3-----1---0---------------|
B|------5---------------5-------------------------------3-----5---|
G|----------------------------------------------------------------|
D|----------------------------------------------------------------|
A|----------------------------------------------------------------|
E|----------------------------------------------------------------|
             But love is a dollar that's already spent
  F               C               G
 |acoustic 1|
e|----------------------------------------------------------------|
B|------1---------------1---------------0---------------0---------|
G|-----------2---------------0---------------0---------------0----|
D|------------3---------------2---------------0---------------0---|
A|----------------3-----------------------------------------------|
E|1-------------------------------3---------------3---------------|
 |acoustic 2|                                                     |
e|5-----3-----1-------------------3-----------3---------3---------|
B|----------------5-----3-----1---------3---------3-----------3---|
G|----------------------------------------------------------------|
D|----------------------------------------------------------------|
A|----------------------------------------------------------------|
E|----------------------------------------------------------------|
                  Love is a song that we sung
  G5
 |acoustic 1|
e|--------------------------------|
B|------3---------------3---------|
G|-----------0---------------0----|
D|------------0---------------0---|
A|--------------------------------|
E|3---------------3---------------|
 |acoustic 2|                     |
e|3-----------3---------3---------|
B|------3---------3-----------3---|
G|--------------------------------|
D|--------------------------------|
A|--------------------------------|
E|--------------------------------|

  F               G               F               G
 |acoustic 1|
e|----------------------------------------------------------------|
B|------1---------------0---------------1-------------0-----------|
G|-----------2---------------0---------------2-----------0--------|
D|------------3---------------0---------------3-------------------|
A|--------------------------------------------------------0---2---|
E|1---------------3---------------1---------------3---------------|
 |acoustic 2|                                                     |
e|1---------------3---------------1------------------3----7-5p3---|
B|1---------------4---------------1-------------------------------|
G|2---------------5---------------2---------------0---0-----------|
D|3---------------5---------------3-------------------------------|
A|----------------------------------------------------------------|
E|----------------------------------------------------------------|
      There's war in my blood love ain't the tune in my lungs


~INTERLUDE 2~


 |acoustic 1|
e|----------------------------------------------------------------|
B|----1-------1-----------1-----------1-------1-------------------|
G|---(0)-----0----0---0h2---2p0------(0)-----0---0h2--------------|
D|--------0h2-----------------------------0h2---------------------|
A|3-------------------------------3-----------------------3---2---|
E|----------------------------------------------------------------|
 |acoustic 2|                                                     |
e|--8---5---------------------------8---5-------------------------|
B|----------8-------------5h8---------------8-------------5---8---|
G|--------------0-----5h7-----------------------0-----5h7---------|
D|----------------------------------------------------------------|
A|----------------------------------------------------------------|
E|----------------------------------------------------------------|


~BRIDGE~

Acoustic 1 goes into just chords with a SIMPLE strumming pattern. C stands
for "chord".

 |acoustic 1|
C|E---------------F---------------C---------------Am--------------|
 |acoustic 2|                                                     |
e|0-------1-------3/5-----3---1---0-------------------------------|
B|0-------1-------3---------------0---------------3/5-----3---1---|
G|1-------2-------4---------------1-------------------------------|
D|2-------3-------5---------------2-------------------------------|
A|----------------------------------------------------------------|
E|----------------------------------------------------------------|
          So here's my consolation an opponent is enough
 |acoustic 1|
e|--0-0-0-0-0-0-0---1-1-1---33----|
B|--0-0-0-0-0-0-0---1-1-1---00----|
G|--1-1-1-1-1-1-1---2-2-2---00----|
D|--2-2-2-2-2-2-2---3-3-3---00----|
A|2-2-2-2-2-2-2-2-3-3-3-3-2-220-2-|
E|0---------------1-------3-------|
 |acoustic 2|                     |
e|0-------1-------3---------------|
B|0-------1-------3---------------|
G|1-------2-------4---------------|
D|2-------3-------5---------------|
A|--------------------------------|
E|--------------------------------|
It takes two to go to war and only one to fall in love


~REPEAT INTERLUDE 2~


~VERSE 3~


 |acoustic 1|
e|------0---------------------------------------------------------|
B|-----------1----------1-----------------3-------5-------3-------|
G|------------0--------------0h2--------0--------------------0----|
D|3---------------3---------------5-----------5-------5-------0---|
A|----------------------------------------------------------------|
E|----------------------------------------------------------------|
 |acoustic 2|                                                     |
e|1-------------------------------3-------------------------------|
B|1-------------------------------3-------------------------------|
G|2-------------------------------4-------------------------------|
D|3-------------------------------5-------------------------------|
A|----------------------------------------------------------------|
E|----------------------------------------------------------------|
         I had a girl I know precisely what made her run  
 |acoustic 1|
e|----------------------------------------------------------------|
B|----1-------1-----------1-----------1-------1-----------1-------|
G|---(0)-----0----0---0h2---2p0------(0)-----0----0---0h2---2p0---|
D|--------0h2-----------------------------0h2---------------------|
A|3-------------------------------3-------------------------------|
E|----------------------------------------------------------------|
 |acoustic 2|                                                     |
e|------8---5-----------8-----------------------------------------|
B|8-------------------------8-----------6---5---------------------|
G|9---------------------------------------------7---5---2---2-----|
D|10--------------------------------------------------------------|
A|----------------------------------------------------------------|
E|----------------------------------------------------------------|

 |acoustic 1|
e|------0---------------------------------------------------------|
B|-----------1----------1-----------------3-------5-------3-------|
G|------------0--------------0h2--------0--------------------0----|
D|3---------------3---------------5-----------5-------5-------0---|
A|----------------------------------------------------------------|
E|----------------------------------------------------------------|
 |acoustic 2|                                                     |
e|------------------------------------5---------------5-----------|
B|----5---------------5-------------------5---------------5-------|
G|--------5---------------5-------0---------------0---------------|
D|3---------------3-----------------------------------------------|
A|----------------------------------------------------------------|
E|----------------------------------------------------------------|
   Her skin was like the sky made my heart beat itself like a drum
 |acoustic 1|
e|----------------------------------------------------------------|
B|----1-------1-----------1-----------1-------1-------------------|
G|---(0)-----0----0---0h2---2p0------(0)-----0---0h2--------------|
D|--------0h2-----------------------------0h2---------------------|
A|3-------------------------------3-----------------------3---2---|
E|----------------------------------------------------------------|
 |acoustic 2|                                                     |
e|--8---5---------------------------8---5-------------------------|
B|----------8-------------5h8---------------8-------------5---8---|
G|--------------0-----5h7-----------------------0-----5h7---------|
D|----------------------------------------------------------------|
A|----------------------------------------------------------------|
E|----------------------------------------------------------------|


~CHORUS 3~


  Am              Em              F               C
 |acoustic 1|
e|----------------------------------------------------------------|
B|------1---------------0---------------1---------------1---------|
G|-----------2---------------0---------------2---------------0----|
D|------------2---------------2---------------3---------------2---|
A|0-----------------------------------------------3---------------|
E|----------------0---------------1-------------------------------|
 |acoustic 2|                                                     |
e|0-------0-------------------------------------------------------|
B|1-------1-------0-------0-------1-------1-------1-------1-------|
G|2-------2-------0-------0-------2-------2-------0-------0-------|
D|2-------2-------------------------------------------------------|
A|0-------0-------------------------------------------------------|
E|----------------------------------------------------------------|
            I long for my girl when we meet in my dreams
  F               C               Em
 |acoustic 1|
e|----------------------------------------------------------------|
B|------1---------------1---------------0---------------0---------|
G|-----------2---------------0---------------0---------------0----|
D|------------3---------------2---------------2---------------2---|
A|----------------3-----------------------------------------------|
E|1-------------------------------0---------------0---------------|
 |acoustic 2|                                                     |
e|----------------------------------------------------------------|
B|1-------1-------1-------1-------0-------0-------0-------0-------|
G|2-------2-------0-------0-------0-------0-------0-------0-------|
D|----------------------------------------------------------------|
A|----------------------------------------------------------------|
E|----------------------------------------------------------------|
          I tell her she'll always be my only one ooh
  G5
 |acoustic 1|
e|--------------------------------|
B|------0---------------0---------|
G|-----------1---------------1----|
D|------------2---------------2---|
A|--------------------------------|
E|0---------------0---------------|
 |acoustic 2|                     |
e|--------------------------------|
B|0-------0-------0-------0-------|
G|1-------1-------1-------1-------|
D|--------------------------------|
A|--------------------------------|
E|--------------------------------|

  F               G               F               G
 |acoustic 1|
e|----------------------------------------------------------------|
B|------1---------------0---------------1-------------0-----------|
G|-----------2---------------0---------------2-----------0--------|
D|------------3---------------0---------------3-------------------|
A|--------------------------------------------------------0---2---|
E|1---------------3---------------1---------------3---------------|
 |acoustic 2|                                                     |
e|1---------------3---------------1------------------3----7-5p3---|
B|1---------------4---------------1-------------------------------|
G|2---------------5---------------2---------------0---0-----------|
D|3---------------5---------------3-------------------------------|
A|----------------------------------------------------------------|
E|----------------------------------------------------------------|
   There's war in my blood there ain't a thing love could've done


~REPEAT INTERLUDE 2~


~OUTRO~


 |acoustic 1|
C|F-------G-------F-------G-------F-------G-------F----

e|--33----|
B|--00----|
G|--00----|
D|--00----|
A|2-220-2-|
E|3-------|

 |acoustic 2|                                                    |
e|---1--1----3--3----1--1----3--3----1--1----3--3----1--1--8--5--|
B|----1-------3-------1-------3-------1-------3-------1--------8-|
G|2-------4-------2-------4-------2-------4-------2------0-------|
D|---------------------------------------------------------------|
A|---------------------------------------------------------------|
E|---------------------------------------------------------------|
                There's war in my blood X4
 |acoustic 1|
e|----------------------------------------------------------------|
B|----1-------1-----------1-----------1-------1-----------1-------|
G|---(0)-----0----0---0h2---2p0------(0)-----0---0h2------0-------|
D|--------0h2-----------------------------0h2-------------2-------|
A|3-------------------------------3-----------------------3-------|
E|----------------------------------------------------------------|
 |acoustic 2|                                                     |
e|--8---5---------------------------8---5--------5\3--0-----------|
B|----------8-------------5h8---------------8-------------1-------|
G|--------------0-----5h7-----------------------------------------|
D|----------------------------------------------------------------|
A|----------------------------------------------------------------|
E|----------------------------------------------------------------|

=============================================================================
I hope you enjoy this tab and that it is easy to follow. Your opinion is
welcome so please rate or comment.

Peace, Love, I'm out. 
Tap to rate this tab
 
# A B C D E F G H I J K L M N O P Q R S T U V W X Y Z