Song name
# A B C D E F G H I J K L M N O P Q R S T U V W X Y Z

Fiction Family - Look For Me Baby tab

-----------------------------------------------------------------------------
                           LOOK FOR ME BABY                 FICTION FAMILY
-----------------------------------------------------------------------------

Tabbed by:hurricaneherman
Tuning:Standard

I'm not even sure if this song has guitar in it, but I tabbed the mandolin/
uke intro out for guitar.

~INTRO~

 
e|----------------------8---8---------3-------3-------3-----------|
B|5Pb-r---5Pb-r-------5-----5-----5-------5-------5-5---3h4-4p3---|
G|------------------5-------5----------------------------------5--|
D|----------------5---------5-------------------------------------|
A|----------------------------------------------------------------|
E|----------------------------------------------------------------|


~VERSE 1~

C                           C7
What you hold dear starts to disappear
        F                          Ab
You can tell what you trust by the things that you fear
        C           A   F        G            C
You can look for me baby oh baby I'll be long gone
                   C7
Who warned you you white washed hue
   F                     Ab
To flee from the raft as all men do
        C           A   F        G            C      C7
You can look for me baby oh baby I'll be long gone

~BRIDGE~

          F               Fm7
Everybody knows everybody knows 
             C                          A
That I'm the fight that can only end it blown
        Dm               D7                 G
You can say I showed a go that I only go to shows oh

~VERSE 2~

             C                       C7
Yeah you can give my regards to your house of cards
     F                       Ab
Your dead end stars and your pharisee shards
        C           A   F        G
You can look for me baby oh baby I'll be long
C           A   F        G
Look for me baby oh baby I'll be long
C           A   F        G            C
Look for me baby oh baby I'll be long gone

~OUTRO~

e|0-0-0-0-0-0-0-008-8-8-880-------|
B|1-1-1-1-1-1-1-115-5-5-551-------|
G|0-0-0-0-0-0-0-005-5-5-550-------|
D|2-2-2-2-2-2-2-225-5-5-552-------|
A|3-3-3-3-3-3-3-33--------3-------|
E|--------------------------------|

=============================================================================
Pb = pre-bend
r = release
h = hammer-on
p = pull-off

I hope you enjoy this tab and that it is easy to follow.

Peace, Love, I'm out.
Tap to rate this tab
 
# A B C D E F G H I J K L M N O P Q R S T U V W X Y Z