Song name
# A B C D E F G H I J K L M N O P Q R S T U V W X Y Z

Fiction Family - Avalon tab

-------------------------------------------------------------------------------
                             AVALON (Intro) - Fiction Family
-------------------------------------------------------------------------------
Tabbed by: Kyle Krafka

Tuning: Standard

e|-8------------8------------7-----6\5-----------5-----------7--------------||
B|---8--------8----------9-----9-------5-----5-----------8-----8-----------o||
G|-----9----9----------9---9-----9---------5---5-------7---7-----7--(7/)----||
D|-------10-------10\9-------------------7---------6\5----------------------||
A|-------------------------------------------------------------------------o||
E|--------------------------------------------------------------------------||


************************************

| /   slide up
| \   slide down

************************************
Tap to rate this tab
# A B C D E F G H I J K L M N O P Q R S T U V W X Y Z