Song name
# A B C D E F G H I J K L M N O P Q R S T U V W X Y Z

Fiction Plane - Two Sisters tab

-------------------------------------------------------------------------------
			   TWO SISTERS - FICTION PLANE
-------------------------------------------------------------------------------
Tabbed by: Richard van Brunschot
Email: richardvanbrunschot@hotmail.com

Tuning: Standard

e|------------------------------------------------|
B|---------15----15-------------------------------|
G|12-14-12-14b16-14b16r14-12h14~-12h14b16r14p12---|
D|---------------------------------------------14~|
A|------------------------------------------------|
E|------------------------------------------------|

e|h19p10p8p7h17p10p8p7h15p10p8p7h19p10p8p7h17p10p8p7h15p10p8p7|
B|------------------------------------------------------------|
G|------------------------------------------------------------|
D|------------------------------------------------------------|
A|------------------------------------------------------------|
E|------------------------------------------------------------|

e|h17p10p8p7h15p10p8p7h14p10p8p7h17p10p8p7h15p10p8p7h14p10p8p7|
B|------------------------------------------------------------|
G|------------------------------------------------------------|
D|------------------------------------------------------------|
A|------------------------------------------------------------|
E|------------------------------------------------------------|

e|h15p10p8p7h14p10p8p7h12p10p8p7h15p10p8p7h14p10p8p7h12p10p8p7------|
B|------------------------------------------------------------10b12~|
G|------------------------------------------------------------------|
D|------------------------------------------------------------------|
A|------------------------------------------------------------------|
E|------------------------------------------------------------------|

e|17b19-17b19r17-15h17~-17-17b19r17--------191715171514151412-----------------------------|
B|---------------------------------17~----17-----------------15b17~---------15------------|
G|---------------------------------------16------------------------12h14-14-14b16r14p12---|
D|--------------------------------------17---------------------------------------------14~|
A|-------------------------------------19-------------------------------------------------|
E|----------------------------------------------------------------------------------------|


Tap to rate this tab
# A B C D E F G H I J K L M N O P Q R S T U V W X Y Z