Song name
# A B C D E F G H I J K L M N O P Q R S T U V W X Y Z

Fiddler On The Roof - If I Was A Rich Man tab

First Tab.
 Hope you enjoy it.
     More Comming Soon.


e:-2-0-2-0---------0-2-0-2-0---0-2-4-5-4-5-4-2------5-4-2-0-----------2-0---|
B:---------4-0---4-----------4------------------------------4-3-1-3-4-----4-|
G:--------------------------------------------------------------------------|
D:--------------------------------------------------------------------------|
A:--------------------------------------------------------------------------|
E:--------------------------------------------------------------------------|

e:-0-2-4-5--7--0-2-0-2-0---0-2-4-5-4-5-4-2------5-4-2-0----------------------|
B:----------------------4------------------------------4-3-1-3-4-5-4-2-5-4-2-|
G:---------------------------------------------------------------------------|
D:---------------------------------------------------------------------------|
A:---------------------------------------------------------------------------|
E:---------------------------------------------------------------------------|
e:
B:-1-4--2-0----------------|
G:-------------------------|
D:-------------------------|
A:-------------------------|
E:-------------------------|
Tap to rate this tab
 
# A B C D E F G H I J K L M N O P Q R S T U V W X Y Z