Song name
# A B C D E F G H I J K L M N O P Q R S T U V W X Y Z

Fidlar - West Coast tab

Ahhhhhh....
e|------------------------------------------------------|
B|------------------------------------------------------|
G|-8------3------1-------3------------------------------|
D|-9------4------2-------4------------------------------|
A|-9-(x8)--4-(x8)--2-(x8)--4-(x8)-----------------------|
E|-7------2-------0------2------------------------------|
Do this two times for the intro !

Verse 1:
e|------------------------------------------------------|
B|------------------------------------------------------|
G|-8------3------5-------1------------------------------|
D|-9------4------6-------2------------------------------|
A|-9-(x8)--4-(x8)--6-(x8)--2-(x8)-----------------------|
E|-7------2-------4------0------------------------------|
Do this two times.

Chorus:
e|------------------------------------------------------|
B|------------------------------------------------------|
G|-8------3------1-------3------------------------------|
D|-9------4------2-------4------------------------------|
A|-9-(x8)--4-(x8)--2-(x8)--4-(x8)-----------------------|
E|-7------2-------0------2------------------------------|
Do that once.

Verse 2 & 3:
e|------------------------------------------------------|
B|------------------------------------------------------|
G|-8------3------5-------1------------------------------|
D|-9------4------6-------2------------------------------|
A|-9-(x8)--4-(x8)--6-(x8)--2-(x8)-----------------------|
E|-7------2-------4------0------------------------------|
Do this four times.

Chorus:
e|------------------------------------------------------|
B|------------------------------------------------------|
G|-8------3------1-------3------------------------------|
D|-9------4------2-------4------------------------------|
A|-9-(x8)--4-(x8)--2-(x8)--4-(x8)-----------------------|
E|-7------2-------0------2------------------------------|

There you go! Hopefully I did good for my first writing down the tabs. Haha.
Tap to rate this tab
# A B C D E F G H I J K L M N O P Q R S T U V W X Y Z