Song name
# A B C D E F G H I J K L M N O P Q R S T U V W X Y Z

Fidlar - 5 To 9 tab

This is my first tab and its a pretty easy one so hope its ok. The solo isn't
specific but it is the basic notes :)

First Verse

e|------------------------------------------------------------------------|
B|------------------------------------------------------------------------|
G|---2-x-x-x-x-x-x-x-----------------2-x-x-x-x-x-x-x----------------------|
D|---2-x-x-x-x-x-x-x-4-x-x-x-x-x-x-x-2-x-x-x-x-x-x-x-4-x-x-x-x-x-x-x------|
A|---0-x-x-x-x-x-x-x-4-x-x-x-x-x-x-x-0-x-x-x-x-x-x-x-4-x-x-x-x-x-x-x------|
E|-------------------2-x-x-x-x-x-x-x-----------------2-x-x-x-x-x-x-x------|

Three o clock! (Three o clock!) in the morning, double vision with my homies,
Four o clock! (Four o clock!) feeling funny, got no car and we got no money.

Chorus

e|------------------------------------------------------------------------|
B|------------------------------------------------------------------------|
G|---7-7-7-7-7-7-7-7-7-7-7-7-7-7-7-7-7-7-7-7-7-7-7-7----------------------|
D|---7-7-7-7-7-7-7-7-7-7-7-7-7-7-7-7-7-7-7-7-7-7-7-7----------------------|
A|---5-5-5-5-5-5-5-5-5-5-5-5-5-5-5-5-5-5-5-5-5-5-5-5----------------------|
E|------------------------------------------------------------------------|

Ahhhhhh ahhhhh haaaahhhh


Verse


e|------------------------------------------------------------------------|
B|------------------------------------------------------------------------|
G|---2-2-2-2-2-2-2-2-----------------2-2-2-2-2-2-2-2----------------------|
D|---2-2-2-2-2-2-2-2-4-4-4-4-4-4-4-4-2-2-2-2-2-2-2-2-4-4-4-4-4-4-4-4------|
A|---0-0-0-0-0-0-0-0-4-4-4-4-4-4-4-4-0-0-0-0-0-0-0-0-4-4-4-4-4-4-4-4------|
E|-------------------2-2-2-2-2-2-2-2-----------------2-2-2-2-2-2-2-2------|

Five o clock! (Five o clock!) bumming, sunset, drinking forties till we canít see
Six o clock! (Six o clock!) get too bent and ask if Evan's got anything

Chorus

e|------------------------------------------------------------------------|
B|------------------------------------------------------------------------|
G|---7-7-7-7-7-7-7-7-7-7-7-7-7-7-7-7-7-7-7-7-7-7-7-7----------------------|
D|---7-7-7-7-7-7-7-7-7-7-7-7-7-7-7-7-7-7-7-7-7-7-7-7----------------------|
A|---5-5-5-5-5-5-5-5-5-5-5-5-5-5-5-5-5-5-5-5-5-5-5-5----------------------|
E|------------------------------------------------------------------------|

Ahhhhhh ahhhhh haaaahhhh

SOLO

e|------------------------------------------------------------------------|
B|---------------------------7-7-10-10-7-7-10-10-7-7-10-10-7-7-10-10------|
G|---6-6-6-6-6-6-6-6-6-6-6-6----------------------------------------------|
D|------------------------------------------------------------------------|
A|------------------------------------------------------------------------|
E|------------------------------------------------------------------------|

e|------------------------------------------------------------------------|
B|---------------------------7-7-10-10-7-7-10-10-7-7-10-10-7-7-10-10------|
G|---6-9-9-6-9-9-6-9-6-6-9-9----------------------------------------------|
D|------------------------------------------------------------------------|
A|------------------------------------------------------------------------|
E|------------------------------------------------------------------------|

e|---7-7-5-5-----5-5-7--5------5-5-7b-7b-7b-7b-7b-7b-7b-7b-7b-7b-7b-7b----|
B|-----------7-7-----------7-7--------------------------------------------|
G|------------------------------------------------------------------------|
D|------------------------------------------------------------------------|
A|------------------------------------------------------------------------|
E|------------------------------------------------------------------------|

Verse

e|------------------------------------------------------------------------|
B|------------------------------------------------------------------------|
G|---2-x-x-x-x-x-x-x-----------------2-x-x-x-x-x-x-x----------------------|
D|---2-x-x-x-x-x-x-x-4-x-x-x-x-x-x-x-2-x-x-x-x-x-x-x-4-x-x-x-x-x-x-x------|
A|---0-x-x-x-x-x-x-x-4-x-x-x-x-x-x-x-0-x-x-x-x-x-x-x-4-x-x-x-x-x-x-x------|
E|-------------------2-x-x-x-x-x-x-x-----------------2-x-x-x-x-x-x-x------|

Eight o clock! (Eight o clock!) feeling shitty, coming down off cheap pcp
Nine o clock!, (Nine o clock!) drunk and driving, on my way to Culver city.


Chorus

e|------------------------------------------------------------------------|
B|------------------------------------------------------------------------|
G|---7-7-7-7-7-7-7-7-7-7-7-7-7-7-7-7-7-7-7-7-7-7-7-7----------------------|
D|---7-7-7-7-7-7-7-7-7-7-7-7-7-7-7-7-7-7-7-7-7-7-7-7----------------------|
A|---5-5-5-5-5-5-5-5-5-5-5-5-5-5-5-5-5-5-5-5-5-5-5-5----------------------|
E|------------------------------------------------------------------------|

Ahhhhhh ahhhhh haaaahhhh

Verse

e|------------------------------------------------------------------------|
B|------------------------------------------------------------------------|
G|---2-2-2-2-2-2-2-2-----------------2-2-2-2-2-2-2-2----------------------|
D|---2-2-2-2-2-2-2-2-4-4-4-4-4-4-4-4-2-2-2-2-2-2-2-2-4-4-4-4-4-4-4-4------|
A|---0-0-0-0-0-0-0-0-4-4-4-4-4-4-4-4-0-0-0-0-0-0-0-0-4-4-4-4-4-4-4-4------|
E|-------------------2-2-2-2-2-2-2-2-----------------2-2-2-2-2-2-2-2------|

Ten o clock! (Ten o clock!) stuck in traffic, taking bong rips in the backseat
Twelve o cloc! (Twelve o clock!) get arrested on my way to LA County

Final Chorus

e|------------------------------------------------------------------------|
B|------------------------------------------------------------------------|
G|---7-7-7-7-7-7-7-7-7-7-7-7-7-7-7-7-7-7-7-7-7-7-7-7-2~-------------------|
D|---7-7-7-7-7-7-7-7-7-7-7-7-7-7-7-7-7-7-7-7-7-7-7-7-2~-------------------|
A|---5-5-5-5-5-5-5-5-5-5-5-5-5-5-5-5-5-5-5-5-5-5-5-5-0~-------------------|
E|------------------------------------------------------------------------|

Ahhhhhh ahhhhh haaaahhhh

Thank you for clicking on this one :) It might not be perfect but it's the best i could do
Tap to rate this tab
# A B C D E F G H I J K L M N O P Q R S T U V W X Y Z