Song name
# A B C D E F G H I J K L M N O P Q R S T U V W X Y Z

Fidlar - Wait For The Man tab

Fidlar - Wait for the Man

Riff 1:

E|-----------------------------------|
B|-----------------------------------|
G|------------7-----7----------------|
D|-5-55555555-7-7-5-7-22222222222222-|
A|-5-55555555-5-7-5-5-22222222222222-|
E|-3-33333333---5-3---00000000000000-|

Riff 2:

E|-----------------------------------|
B|-----------------------------------|
G|------------7----------------------|
D|-5-55555555-7-7-5-2-22222222222222-|
A|-5-55555555-5-7-5-2-22222222222222-|
E|-3-33333333---5-3-0-00000000000000-|
     ********         **************

Riff 3:

E|----3-3-----3-3-----0-0-----0-0-|
B|----3-3-----3-3-----0-0-----0-0-|
G|----4-4-----4-4-----1-1-----1-1-|
D|-555---555-5---222-2---222-2----|
A|-555---555-5---222-2---222-2----|
E|-333---333-3---000-0---000-0----|

Pre Solo:

E|--------------------------------|
B|--------------------------------|
G|--------------------------------|
D|-16b18~-16b18-16b18-6b18-14b16~-|
A|--------------------------------|
E|--------------------------------|

Solo:

E|----------------------------------------|
B|----------------------------------------|
G|----------------------------------------|
D|-16-14-16-14-16-14-16-14-16-14~12h14p12~|
A|----------------------------------------|
E|----------------------------------------|

E|----------------------------------------|
B|----------------------------------------|
G|----------------------------------------|
D|-16-14-16-14-16-14-16-14-12b13----------|
A|----------------------------------------|
E|----------------------------------------|

E|----------------------------------------|
B|----------------------------------------|
G|----------------------------------------|
D|-16-14-16-14-16-14-16-14-16-14~12h14p12~|
A|----------------------------------------|
E|----------------------------------------|

E|----------------------------------------|
B|----------------------------------------|
G|--------------------------------14~-----|
D|-16-14-16-14-16-14-16-14-12b13~---------|
A|----------------------------------------|
E|----------------------------------------|


Riff 4:


E|------------------------------------------------------|
B|------------------------------------------------------|
G|-7----------7-----7----------7-----7------------------|
D|-7-22222222-7-7-5-7-22222222-7-7-5-7-222222222222222~-|
A|-5-22222222-5-7-5-5-22222222-5-7-5-5-222222222222222~-|
E|---00000000---5-3---00000000---5-3---000000000000000~-|




------------------------------------------

Progression:

Riff 1 (x4)

Riff 2 (x2)

Riff 3 (x2)

Riff 1 (x2)

Riff 2 (x2)

Riff 3 (x1)

Riff 3 (x1) Pre Solo (x1) 

Solo (x1)

Riff 1 (x4)

Riff 4 (x1)
Tap to rate this tab
# A B C D E F G H I J K L M N O P Q R S T U V W X Y Z