Song name
# A B C D E F G H I J K L M N O P Q R S T U V W X Y Z

Field Music - Lets Write A Book tab

Tabbed by Andrew Schembri

Tuning: standard

Intro
W/ sub octave

e|------------------------------------------------|
B|------------------------------------------------|
G|-----------4-4----------------------------------|
D|-4-4--6-6---------------------------------------|
A|------------------------------------------------|
E|------------------------------------------------|


This is what is played throughout. It's kind of a bass/guitar riff

e|-----------------------------|
B|-----------------------------|
G|-----------4-4---------------|
D|-4-4--6-6-------0-0----------|
A|---------------------2-2-----|
E|-----------------------------|

e|-----------------------------|
B|-----------------------------|
G|-----------4-4---------------|
D|-4-4--6-6-------0-0----------|
A|---------------------2-2-----|
E|-----------------------------|

e|-----------------------------|
B|-----------------------------|
G|-----------5-5---------------|
D|-5-5--7-7-------0-0----------|
A|---------------------2-2-----|
E|-----------------------------|

e|-----------------------------|
B|-----------------------------|
G|-----------4-4---------------|
D|-6-6--7-7-------0-0--2-2-----|
A|-----------------------------|
E|-----------------------------|
Tap to rate this tab
# A B C D E F G H I J K L M N O P Q R S T U V W X Y Z