Song name
# A B C D E F G H I J K L M N O P Q R S T U V W X Y Z

Field Music - In Context tab

Tabbed by Andrew Schembri

Intro:

e|------------------------------------------------|
B|------------------------------------------------|
G|------------------------------------------------|
D|------------0---0---0---0---0---0---0---0-------|
A|---15/3---3---3---3---3---3---3---3---3---------|
E|------------------------------------------------|

Everyone takes their place for… / They try to accept their…
/ So many words I cant't afford to give…

e|------------------------------------------------|
B|------------------------------------------------|
G|------------------------------------------------|
D|------------0---0---0---0---0---0---0---0-------|
A|----------3---3---3---3---3---3---3---3---------|
E|------------------------------------------------|

…youuu / …part / …away

e|------------------------------------------------|
B|------------------------------------------------|
G|-----0-----0------------------------------------|
D|---5---5-4---0----------------------------------|
A|---------------2---0-1-2------------------------|
E|-----------------0------------------------------|...
...
…e|-----------------------------------------------|
B|------------------------------------------------|
G|------------------------------------------------|
D|------------0---0---0---0---0---0---0---0-------|
A|----------3---3---3---3---3---3---3---3---------|
E|------------------------------------------------|

I was expecting such a law

e|------------------------------------------------|
B|------------------------------------------------|
G|------------------------------------------------|
D|------------0---0---0---0---0---0---0---0-------|
A|----------3---3---3---3---3---3---3---3---------|
E|------------------------------------------------|

e|-------------------------|
B|-------------------------|
G|-------------------------|
D|----5--5--5--5-----------|
A|----5--5--5--5-----------|
E|----3--3--3--3-----------|

I'm not exactly sure about the chorus tab but I know the chords are

          C                   3 strums on D
And you know that I love that

G|-0-1-2-3-|

And I would have said anything

… That's as much I could figure out. If I manage to figure out the rest of it, 
I'll post it here immediately. :)
Tap to rate this tab
# A B C D E F G H I J K L M N O P Q R S T U V W X Y Z