Song name
# A B C D E F G H I J K L M N O P Q R S T U V W X Y Z

Field Of View - Dan Dan Kokoro Hikareteku tab

Intro:

e| |--3-3-----3-5-3------------------------------------|
B| |------5-6-------6-5----5-5-----5-6-5---------------|
G| |---------------------7-----5-7------7-5-4-2--------|
D| |---------------------------------------------------|
A| |---------------------------------------------------|
E| |---------------------------------------------------|

e| |-----5-3-------------------------------------------|
B| |-----------3-5-6-5-3---5--1-0-1--------------------|
G| |-2-5-----5-----------5-----------------------------|
D| |---------------------------------------------------|
A| |---------------------------------------------------|
E| |---------------------------------------------------|

Intermediate:

e| |---8-8-8-8-8-6-4-6-8-6--6-6-6-6-6-4-3-4-6-4-------------|
B| |-1------------------------------------------------------|
G| |--------------------------------------------------------|
D| |--------------------------------------------------------|
A| |--------------------------------------------------------|
E| |--------------------------------------------------------|

e| |-4-4-4-3---3---------3--3-4-6-8--8-8-8-8-8-6-4-6-8-6----|
B| |---------6---6-6-4-6------------------------------------|
G| |--------------------------------------------------------|
D| |--------------------------------------------------------|
A| |--------------------------------------------------------|
E| |--------------------------------------------------------|

e| |-6-6-8-10-10-11-6-4-3-4--4-6-4-3-3--3-15-13-12----------|
B| |--------------------------------------------------------|
G| |--------------------------------------------------------|
D| |--------------------------------------------------------|
A| |--------------------------------------------------------|
E| |--------------------------------------------------------|

e| |-12-13-12-11---4-6-8-8-8-8-8-8-6-10-8-6-4-3-3-3-3-3-3---|
B| |--------------------------------------------------------|
G| |--------------------------------------------------------|
D| |--------------------------------------------------------|
A| |--------------------------------------------------------|
E| |--------------------------------------------------------|

e| |-3-4-6-8-10--10-8-10-10-10-10-8--10-12--12-12-10-12-14--|
B| |--------------------------------------------------------|
G| |--------------------------------------------------------|
D| |--------------------------------------------------------|
A| |--------------------------------------------------------|
E| |--------------------------------------------------------|

Final:

e| |--3-3-------3-5-3-------------------------------------|
B| |-------5-6--------6-5-----5-5------5-6-5--------------|
G| |----------------------7------5-7-----------7-5-4-2----|
D| |------------------------------------------------------|
A| |------------------------------------------------------|
E| |------------------------------------------------------|

e| |-----5-3----------------------------------------------|
B| |-----------3-5-6-5-3---5--5-6-3-----------------------|
G| |-2-5-----5-----------5--------------------------------|
D| |------------------------------------------------------|
A| |------------------------------------------------------|
E| |------------------------------------------------------|

e| |--3-3-----3-5-3---------------------------------------|
B| |------5-6-------6-5----5-5-----5-6-5------------------|
G| |---------------------7-----5-7------7-5-4-2-----------|
D| |------------------------------------------------------|
A| |------------------------------------------------------|
E| |------------------------------------------------------|

e| |-----5-3----------------------------------------------|
B| |-----------3-5-6-5-3---3--1-0-1-----------------------|
G| |-2-5-----5-----------5--------------------------------|
D| |------------------------------------------------------|
A| |------------------------------------------------------|
E| |------------------------------------------------------|
Tap to rate this tab
 
# A B C D E F G H I J K L M N O P Q R S T U V W X Y Z