Song name
# A B C D E F G H I J K L M N O P Q R S T U V W X Y Z

Fieldys Dreams - Bleu tab

----------------------------------------------------------------------------
			     Bleu - Fieldy's Dreams
----------------------------------------------------------------------------
Tabbed by:DrewsGotTheLife
Email:cosmokotter@yahoo.com

Tuning: Drop A, or for those who don't have a seven string, u can use it as drop d, 
really matter


Intro and verse through the whole song

D|---------9---------8-------------------------------------------------------|
A|-------8-------8-----8-----------------------------------------------------|
F|-----7-------7---7-----7---------------------------------------------------|
C|----0------0---------------------------------------------------------------|
G|---------------------------------------------------------------------------|
D|---------------------------------------------------------------------------|
A|---------------------------------------------------------------------------|

Although there is no lead for guitar, you can play the lead as that other intrument

D|---14---14-14-14--15--19---17---14---19---17----17-21-24|
A|--------------------------------------------------------|
F|--------------------------------------------------------|
Tap to rate this tab
 
# A B C D E F G H I J K L M N O P Q R S T U V W X Y Z