Fiend Without A Face - Cosmonaut tab

-----------------------------------------------------------------------------
			     COSMONAUT - Fiend Without A Face
-----------------------------------------------------------------------------
Tabbed by: Adi Cutic		
Email: adicutic@hotmail.com

Tuning: eBGDAE

e|---------------|       |-------------------------|
B|---------------|       |-------------------------|
G|---------------|       |-------------------------|
D|---------------|       |-------------------------| x4
A|--2--2----2-2--|       |-------------------------|
E|--0--0----0-0--|       |--0h1p0-0h1p0-0h1-4-3-1--|

e|----------------------------------------------------------------
B|----------------------------------------------------------------
G|-2-2-3-3-5-5-3-3-2-2--------------------------------------------
D|---------------------5-5-3-3-2-2-1-1-3-3-4-4-3-3-1-1------------
A|-----------------------------------------------------4-4-3-3-1-1
E|----------------------------------------------------------------

e|----------------------0~--|
B|---------------------0~---|
G|--------------------0~----|
D|-------------------2~-----| x2
A|------------------2~------|
E|--2~1-2~1-2-1-0--0~-------|

e|------------------------------------------------------------------|
B|-3-3-4-4-6-6-4-4-3-3----------------------------------------------|
G|---------------------5-5-3-3-2-2-1-1-3-3-4-4-3-3-1-1--------------|
D|-----------------------------------------------------4-4-3-3-1-1--|
A|------------------------------------------------------------------|
E|------------------------------------------------------------------|

e|----------------------0~--|
B|---------------------0~---|
G|--------------------0~----|
D|-------------------2~-----| x2
A|--2~1-2~1-2-1-0---2~------|
E|-----------------0~-------|

e|--3~~-1-0-1-0------|          |--3~~--1-0-1-0-4~~--1-0-1---5~~-|
B|-------------------|          |--------------------------3/5~~-|
G|--------------2~~--|          |--------------------------------|
D|-------------------| x 2      |--------------------------------|
A|-------------------|          |--------------------------------|
E|-------------------|          |--------------------------------|

Repeat whole thing two more times.

There you have it. Cosmonaut by Fiend Without a Face!



************************************

| /   slide up
| \   slide down
| h   hammer-on
| p   pull-off
| ~   vibrato
| +   harmonic
| x   Mute note
| b   Bend
| pb  Pre-bend
| br  Bend release
| pbr Pre-bend release
| brb Bend release bend

************************************
Tap to rate this tab
 
# A B C D E F G H I J K L M N O P Q R S T U V W X Y Z