Song name
# A B C D E F G H I J K L M N O P Q R S T U V W X Y Z

Fiend Without A Face - Volcano tab

Fiend without a face - Volcano

Riff #1

Something like this:

E|--------------------------------------------------|
B|--------------------------------------------------|
G|--------------------0--1--------------------------|
D|-----------0--2--3-----------------0--2--3--3--2--|
A|-----2--3--------------------2--3-----------------|
E|--0-----------------------0-----------------------|

Riff #2

E|-----------0v--v--v-------------------4v--v--|
B|-----------1---------------0h2--0-----3------|
G|-----------2---------2--3----------3--1------|
D|--2--3--2--2--------------------------2------|
A|-----------0---------------------------------|
E|---------------------------------------------|

E|--------------12v--v------------------------------------16v--|
B|--------------13------------------------------------15-------|
G|--------------14--------------12/14\12----------13-----------|
D|--14--15--14----------14--15------------15--14---------------|
A|-------------------------------------------------------------|
E|-------------------------------------------------------------|

Riff #1

Riff #3 play as arpeggios:


E|--2--3--2--|
B|--0--0--0--|
G|--2--3--2--|
D|--1--2--1--|
A|--2--3--2--|
E|-----------|
Tap to rate this tab
 
# A B C D E F G H I J K L M N O P Q R S T U V W X Y Z