Song name
# A B C D E F G H I J K L M N O P Q R S T U V W X Y Z

Fifteen - Stolen Life tab

-------------------------------------------------------------------------------
                             STOLEN LIFE - Fifteen
-------------------------------------------------------------------------------
Figure Out The Strums And All That. These Are The Right Chords Though.

By: Fifteen_CrimpSh

Intro
Guitar 1
E--------------------------------------------------------------------|
B--------------------------------------------------------------------|
G---5----------------------------------------------------------------|
D-5-5-7--------------------------------------------------------------|
A-5-3-7--------------------------------------------------------------|
E-3---5--------------------------------------------------------------|

Guitar 2
E---------12-----------------|----------12------------------------------|
B-------7----7-----7-----7---|--5----------7-----7-----7----------------|
G---5----------5-----5-----5-|---5--5--------5-----5-----5--------------|
D-5---5----------5-----5-----|-5------5--------5-----5------------------|
A----------------------------|-----5------------------------------------|
E----------------------------|------------------------------------------|
This is all harmonics.

Verse
E--------------------------------------------------------------------|
B----7--5------------------------------------------------------------|
G----7--5------------------------------------------------------------|
D-5--7--5--7---------------------------------------------------------|
A-5--5--3--7---------------------------------------------------------|
E-3--------5---------------------------------------------------------|

Chorus
E------------------------|3--2--0-------------------------------------|
B----7-----5--7--5--4--2-|3--3--1--0----------------------------------|
G----7-----5--7--5--4--2-|0--2--0--2----------------------------------|
D-2--7--5--5--7--5--4--2-|0--0--2--2----------------------------------|
A-2--5--5--3--5--3--2--0-|2-----3--0----------------------------------|
E-0-----3----------------|3-------------------------------------------|
  \  x4    /             ...I saw Cornelius speak today...

E--------------|-----------------------------------------------------|
B--------------|-----------------------------------------------------|
G--5-----------|-5--4--7---------------------------------------------|
D--5--7--------|-5--4--7--5------------------------------------------|
A--3--7--------|-3--2--5--5------------------------------------------|
E-----5--------|----------3------------------------------------------|
Tap to rate this tab
 
# A B C D E F G H I J K L M N O P Q R S T U V W X Y Z