Song name
# A B C D E F G H I J K L M N O P Q R S T U V W X Y Z

Fifteen - The End tab

Title: The End
Artist: Fifteen
Album: Swain's First Bike Ride
Electric Guitar

I wrote this with guitar pro so if theres a ton of the crap in the legend below 
that is confusing, dont worry about it. i made this tab today simply because I 
really like this song.  enjoy

Legend
L - tied note
x - dead note
h - hammer on/pull off
b - bend
s - slide
~ - vibrato
g - ghost note
> - accentuated note
t - trill
M - palm mute
. - staccato
P - popping (bass)
S - slapping (bass)
+ - tapping
W - wide vibrato
< - fade in
w - whammy bar
= - tremolo picking
v - brush up
^ - brush down
V - pick stroke up
n - pick stroke down


E |-------------------------------|----------------------------|
B |-----12-10-9--10-9-------------|--9-----9--12-7-----7--7----|
G |--9----------------------------|----------------------------|
D |-------------------------------|----------------------------|
A |-------------------------------|----------------------------|
E |-------------------------------|----------------------------|


----------------------------------|----------------------------|
--12-10-9--10-9--7----------------|-----7--9-----7-------------|
--------------------9-------------|--9-------------------------|
----------------------------------|----------------------------|
----------------------------------|----------------------------|
----------------------------------|----------------------------|


----------------------------|----------------------------|
--9-----7-----7-------------|-----7--9-----7-------------|
-----------9--------9-------|--9-----------------9-------|
----------------------------|----------------------------|
----------------------------|----------------------------|
----------------------------|----------------------------|


----------------------------------|-------------|---------------------------|
-----7--9-----7-----------7-------|--7--7-------|-----12-10-9--10-12-10-9---|
--9-------------------------------|-------------|--9------------------------|
----------------------------------|--------9----|---------------------------|
----------------------------------|-------------|---------------------------|
----------------------------------|-------------|---------------------------|
                                             
im sorry but the line that is above and the line below where he plays faster for a 
quick second, im not too sure on and a little bit after that.

----------------------------|----------------------------|----------------|
--10-7-----7--12-10-9--10---|--9--7-----7----------------|--7-------------|
--------9-------------------|--------9-------------------|-----9-----9----|
----------------------------|-----------------9--9--9----|----------------|
----------------------------|----------------------------|----------------|
----------------------------|----------------------------|----------------|


----------------------------|----------------------------|
----------------------------|-----------7----------------|
-----------9--9-----9-------|--------------9-----9-------|
--9--9--9-------------------|--9--9--9-------------------|
----------------------------|----------------------------|
----------------------------|----------------------------|


----------------------------|-------------|
-----------7-----------7----|--7--7-------|
--9--9--9-------------------|-------------|
----------------------------|--------9----|
----------------------------|-------------|
----------------------------|-------------|


-------------------------------------------------|----|-------|----||
--------12----10----9-----10-------9h-10-9-------|----|-------|----||
--9-----------------------------------------9----|----|-------|----||
-------------------------------------------------|----|-------|----||
-------------------------------------------------|----|-------|----||
-------------------------------------------------|----|-------|----||
Tap to rate this tab
# A B C D E F G H I J K L M N O P Q R S T U V W X Y Z