Guitaretab - guitar tabs
Song name
# A B C D E F G H I J K L M N O P Q R S T U V W X Y Z
Home / F / Fifteen / Run Ii tab

Fifteen - Run Ii tab

Run II- Fifteen

Intro
|---------0-----------4-     |-------------0-----------0-4-|
|---------0-----------0-     |-----------0-------------0---|
|-1-----------1---------     |-1-------1-----1-------1-----|
|-2-x5--2-----2-x5-—2---  x2 |-2-x5—-2-------2-x5—-2-------|  x2
|-----------------------     |-----------------------------|
|-----------------------     |-----------------------------|

Verse
|-------------------------|
|-------------------------|
|------6------------------|
|-2—---6—x8-7----4--------|   x4
|-2—x8-4—---7-x8-4-x8-----|
|-0---------5—---2—-------|

Chorus
|-----------------------------|
|-----------------------------|
|-9---------------------------|
|-9—x8-9—---4—---6-/-7--------|   x4
|-7—---9—x8-4—x6-6-/-7-x8-----|
|------7—---2—---4-/-5--------|

Intro
Verse x4
[ Tab from: http://www.guitaretab.com/f/fifteen/93079.html ]
Bridge
|---------------------------|
|---------------------------|
|-9--------------9----------|
|-9—x8-9----7----9-x3-9-----|
|-7—---9-x8-7-x8-7----9-x4--|
|------7----5---------7-----|

Intro
Chorus x4


I know I understand mom and dad beat you up
I know I understand you've been incested you've been assaulted
I know I understand cos it all happened to me
I know I understand it's time to run away to Berkeley

Take the first plane, Hope the first train
Hitch the first ride, save your own life
Stick your thumb out on the freeway, it's the only way your gonna be free

I know I understand your worried about a place to stay
I know I understand we got plenty of real estate
I know I understand your worried about what you’re gonna eat
I know I understand we got three meals a day every day of the week

Kids won't take it anymore
You call it discipline we know it as terrorism and war (on us)
Kids won't take it anymore
You call it love we know it as terrorism and war (on us)

Take the first plane, Hop the first train
Hitch the first ride, save your own life
Stick your thumb out on the freeway
It's the only way your gonna be free
Related for Run Ii tab
Advertisement will be closed in 10 seconds