Song name
# A B C D E F G H I J K L M N O P Q R S T U V W X Y Z

Fifty Four - Burning tab

Artist: The Whitest Boy Alive
Song: Burning
Album: Dreams
Year: 2006

Tabbed by Riccardo Castellan (riccaste@libero.it)


e|---------------------------------------------------------|
B|---------------------------------------------------------|
G|-----------------------9-11------------------------------|
D|--9-9-9-11--12-12-12-12-----9-9-9-11--12-12-12-12-11-----|
A|----------------------------------------------------12---|
E|---------------------------------------------------------|

e|---------------------------------------------------------|
B|---------------------------------------------------------|
G|-----------------------9-11-------11--0-9-9-0-9-0-9-11---|
D|--9-9-9-11--12-12-12-12-----9-9-9------------------------|
A|---------------------------------------------------------|
E|---------------------------------------------------------|


e|---------------------------------------------------------|
B|---------------------------------------------------------|
G|-----------------------9-11------------------------------|
D|--9-9-9-11--12-12-12-12-----9-9-9-11--12-12-12-12-11-----|
A|----------------------------------------------------12---|
E|---------------------------------------------------------|

e|---------------------------------------------------------|
B|---------------------------------------------------------|
G|---------------------------------------------------------|
D|--9-9-9\7-7p9--9-9-9-7-7/9-9-9\7-7-7\4-4/7--7\4\2-0------|
A|----------------------9----------------------------------|
E|---------------------------------------------------------|

So many people telling me one way 
So many people tell me to stay 
Never time to have my mind made up 
Caught in a motion that I don't want stop 

Gmaj7               G                            Gmaj7  G   Bm A/E   
So many people telling me one way             	
Bm7                 A/E                         e|----|---|---|---|
So many people tell me to stay                  B|----|-8-|-7-|-5-|
Gmaj7               G                           G|-11-|-7-|-7-|-6-|
Never time to have my mind made up              D|-9--|-9-|-9-|-7-|
Bm7                 A/E                         A|-10-|---|-9-|-5-|
Caught in a motion that I don't want stop       E|----|---|---|---|


e|---------------------------------------------------------|
B|---------------------------------------------------------|
G|-----------------------9-11------------------------------|
D|--9-9-9-11--12-12-12-12-----9-9-9-11--12-12-12-12-11-----|
A|----------------------------------------------------12---|
E|---------------------------------------------------------|

e|---------------------------------------------------------|
B|---------------------------------------------------------|
G|-----------------------9-11-------11--0-9-9-0-9-0-9-11---|
D|--9-9-9-11--12-12-12-12-----9-9-9------------------------|
A|---------------------------------------------------------|
E|---------------------------------------------------------|


e|---------------------------------------------------------|
B|---------------------------------------------------------|
G|-----------------------9-11------------------------------|
D|--9-9-9-11--12-12-12-12-----9-9-9-11--12-12-12-12-11-----|
A|----------------------------------------------------12---|
E|---------------------------------------------------------|

e|--------------------------------------------------------------|
B|--------------------------------------------------------------|
G|--------------------------------------------------------------|
D|--9-9-9\7-7p9-9-9-9-7-7/9-9-9/12-12-12/14-14/16-16/19-19/21-21|
A|---------------------9----------------------------------------|
E|--------------------------------------------------------------|

So many people telling me one way 
So many people tell me to stay 
Never time to have my mind made up 
Caught in a motion that I don't want stop 

So many people telling me one way 
So many people tell me to stay 
Never time to have my mind made up 
Caught in a motion that I don't want stop

e|----------14---------------14---------------14--------------14--------|
B|-----15-------15------17-------17------15-------15-----14-------14----|
G|-(16)--(16)-------(16)--(16)-------(16)--(16)-------------------------|
D|---------------------------------------------------(12)--(12)---------|
A|----------------------------------------------------------------------|
E|----------------------------------------------------------------------|

That I don't wanna stop 

e|----------14---------------14---------------14--------------14--------|
B|-----15-------15------17-------17------15-------15-----14-------14----|
G|-(16)--(16)-------(16)--(16)-------(16)--(16)-------------------------|
D|---------------------------------------------------(12)--(12)---------|
A|----------------------------------------------------------------------|
E|----------------------------------------------------------------------|

That I don't wanna stop

e|----------14---------------14---------------17--------------14--------|
B|-----15-------15------17-------17------15-------15-----14-------14----|
G|-(16)--(16)-------(16)--(16)-------(16)--(16)-------------------------|
D|---------------------------------------------------(12)--(12)---------|
A|----------------------------------------------------------------------|
E|----------------------------------------------------------------------|

e|----------14------------------------14~-------------------------------|
B|-----15-------15------17------------15~-------------------------------|
G|-(16)--(16)-------(16)--(16)--------16~-------------------------------|
D|----------------------------------------------------------------------|
A|----------------------------------------------------------------------|
E|----------------------------------------------------------------------|


e|----------------------------------------------------------------------|
B|----------------------------------------------------------------------|
G|--4-6-7-9-11-14-16-18-19-20-22-24----4-6-7-9-11-14-16-18-19-20-22-24--|
D|----------------------------------------------------------------------|
A|--2-4-5-7-9--12-14-16-17-18-20-22----2-4-5-7-9--12-14-16-17-18-20-22--|
E|----------------------------------------------------------------------|

e|----------------------------------------------------------------------|
B|----------------------------------------------------------------------|
G|--4-6-7-9-11-14-16-18-19-19\18-18-18\16-16-16.......16-16......-------|
D|----------------------------------------------------16-16......-------|
A|--2-4-5-7-9--12-14-16-17-17\16-16-16\14-14-14.......14-14......-------|
E|----------------------------------------------------------------------|


e|------------------------------------|           |--7~---|
B|-----------8-8...--7-7...--5-5...---|           |--7~---|
G|-11-11...--7-7...--7-7...--6-6...---|  x 4  End |--7~---|
D|--9--9...--9-9...--9-9...--7-7...---|           |--9~---|
A|-10-10...----------9-9...--5-5...---|           |--9~---|
E|------------------------------------|           |--7~---|




Tap to rate this tab
# A B C D E F G H I J K L M N O P Q R S T U V W X Y Z