Guitaretab - guitar tabs
Song name
# A B C D E F G H I J K L M N O P Q R S T U V W X Y Z

Fifty Four - Climbing tab

Bitch And Animal - Climbing - Whatís That Smell? (1999)

d|---------------------------------------|
a|---------------------------------------|
f|----------------4--1-------------------|
c|--4--4h6--6--6--------1h2--2--2--2--2--|
g|---------------------------------------|
C|---------------------------------------|

Climbing to the top of mountains
Iím climbing to the top of mountains
Reaching for the sky it disappears

d|-----------------|
a|-----------------|
f|-----------------|
c|--------------2--|
g|--4--4--2--2-----|
C|-----------------|

Watch my hands lose their grip
Watch my life lose its meaning

d|---------------------------------------|
a|---------------------------------------|
f|----------------4--1-------------------|
c|--4--4h6--6--6--------1h2--2--2--2--2--|
g|---------------------------------------|
C|---------------------------------------|

(What's my life it's losing meaning)

I wish I could climb
To the top with you
I'd pick you up and cradle the fall
I wish I had the hand to heal you
Only my hand is so small

d|-----------------|
a|-----------------|
f|-----------------|
c|--------------2--|
g|--4--4--2--2-----|
C|-----------------|

Struggle for the point of gravity
Search for that slice of light
Your breath beats through me
I keep struggling
Breath beats through you
Keep struggling
Breath beats
Keep struggling
Breath beats
Keep struggling

d|---------------------------------------|
a|---------------------------------------|
f|----------------4--1-------------------|
c|--4--4h6--6--6--------1h2--2--2--2--2--|
g|---------------------------------------|
C|---------------------------------------|

Breath beats

d|--------------------|
a|--------------------|
f|--------------------|
c|--------7--6--7--6--|
g|--5-----------------|
C|-----7--------------|

Things just got rolling here
You started dying
It might be heaven there
What if they're lying?
What if they're lying?

d|--------------|
a|--------------|
f|--------------|
c|--------------|
g|--3--0--0--2--|
C|--------------|
[ Tab from: http://www.guitaretab.com/f/fifty-four/50006.html ]
d|---------------------------------------|
a|---------------------------------------|
f|----------------4--1-------------------|
c|--4--4h6--6--6--------1h2--2--2--2--2--|
g|---------------------------------------|
C|---------------------------------------|

If I could climb to the top with you
If I had the strength to heal you 
If I

d|--------------------|
a|--------------------|
f|--------------------|
c|--------7--6--7--6--|
g|--5-----------------|
C|-----7--------------|

Things just got rolling here
You started dying
It might be heaven there
What if they're lying?
What if they're lying?

d|--------------|
a|--------------|
f|--------------|
c|--------------|
g|--3--0--0--2--|
C|--------------|

She needs with anger heart
And cancer breast
A lap to rest
She needs a lap to rest
She needs with anger heart
And cancer breast
A lap to rest
She needs a lap to rest
She needs with anger heart
And cancer breast
A lap to rest
She needs a lap to rest
She needs with anger heart
And cancer breast
A lap to rest
She needs a lap to rest

d|---------------------------------------|
a|---------------------------------------|
f|----------------4--1-------------------|
c|--4--4h6--6--6--------1h2--2--2--2--2--|
g|---------------------------------------|
C|---------------------------------------|

Climbing to the top of mountains
Iím climbing to the top
Iím climbing

d|----------------------------------------------------------------------------------------------------------|
a|----------------------------------------------------------------------------------------------------------|
f|----------------------------------------------------------------------------------------------------------|
c|--2s10--9--9--9--2s10--9--9--9--2s10--9--9--9--12--10--9--9--9--12--10--9--9--9--12--10--9h10p9h10p9--10--|
g|----------------------------------------------------------------------------------------------------------|
C|----------------------------------------------------------------------------------------------------------|

Lyrics: http://seek.sing365.com:8080/cgibin/s.cgi?q=climbing%20lyrics&kw=on
Related for Climbing tab