Song name
# A B C D E F G H I J K L M N O P Q R S T U V W X Y Z

Fifty Four - Sweaty Palms tab

Band: Fifty Four
Song: Sweaty Palms

Tabber: John Cukras
Email: riffreaper@yahoo.com

Tuning: Normal

Riff 1: A              B
E-----------------|---------------------------|
B-----------------|---------------------------|
G-----------------|---------------------------|
D----------22222--|--2-/7----------------2-/7-|
A-55555555-22222--|--2-/7---33-33--------2-/7-|
E-33333333-00000--|---------11-11 x's 6-------|
pm........ .....

Riff 1: A , B

Riff 2:
E--------------------------------------------------|
B--------------------------------------------------|
G-----------------2-2------------------------------|
D----------2222---2-2-55-5-55--2-2-----------------|
A-55555555-2222---0-0-33-3-33--2-2-3/4-3/4-3-------|
E-33333333-0000----------------0-0-1/2-1/2-1 x's 4-|
pm........ ....

Riff 1: B , A , B

Riff 2

Riff 1: B , A , B

Riff 2 x's 8
Tap to rate this tab
 
# A B C D E F G H I J K L M N O P Q R S T U V W X Y Z