Song name
# A B C D E F G H I J K L M N O P Q R S T U V W X Y Z

Fight Paris - Southern Comfort tab

the rhythm in this song is drop c, so if this is used in a full tab, it needs to be transposed.

E ----------------------------------------------------------------|
B ----------------------------------------------8--11-8--11-8-----|
G -----8-----------------10----------------8-10-10b---10b---10b---|
D 8-10---10-8-10----8-10----10-8-10---8-10------------------------|
A ----------------------------------------------------------------|
E ----------------------------------------------------------------|

E ---------------------------------------------------|
B ---------------------------------------------------|
G -----8-----------------10--------------------------|
D 8-10---10-8-10----8-10----10-8-10---8-8-7-7-5-5-5--|
A ---------------------------------------------------|
E ---------------------------------------------------|

E -------------------------------------------------------|
B -16-13-11-16-13-11---16b-------------------------------|
G -------------------------14----------------------------|
D -------x4-------------------13-------------------------|
A -------------------------------------------------------|
E -------------------------------------------------------|

E ------------------------------------8-11/13------------|
B -------------------------------8-11---------13-11-13---|
G ------8------------8------8-10-------------------------|
D -8-10---10-18-10-----8-10------------------------------|
A -------------------------------------------------------|
E -------------------------------------------------------|

E ----------------------------------------------------15-18-15-18-15----|
B ------16------------------18------------------16-18-18b---18b---18b---|
G 15-17----17-16-17---15-17----17-15-17---15-17-------------------------|
D ----------------------------------------------------------------------|
A ----------------------------------------------------------------------|
E ----------------------------------------------------------------------|

E ---------------------------------------18-15-13-18-15-13-18-20\-------|
B ------16------------------18-------------------x2---------------------|
G 15-17----17-16-17---15-17----17-15-17---------------------------------|
D ----------------------------------------------------------------------|
A ----------------------------------------------------------------------|
E ----------------------------------------------------------------------|
Tap to rate this tab
# A B C D E F G H I J K L M N O P Q R S T U V W X Y Z