Song name
# A B C D E F G H I J K L M N O P Q R S T U V W X Y Z

Fight - Sid And Nancy tab

Band: The Fight
Song: Sid and Nancy
Album: Nothing New Since Rock 'N' roll
E-mail: Greenday_rhcp2002@yahoo.co.uk
Tuning: Standard ---rhythm
///////= Pick Scrape


Intro
|--------------------------------------|
|--------------------------------------|
|--------------------------------------|
|--------------------------------------|
|-------------------//////////////////-|
|-0~--(bass really)-//////////////////-|


Main riff
|------------------------------|
|------------------------------|
|------------------------------|
|-2222--5555--7777--10-10--9-9-|
|-2222--5555--7777--10-10--9-9-|
|-0000--3333--5555---8--8--7-7-|


Riff2
|------------------------------|
|------------------------------|
|------------------------------|
|-8888--7777--8888--9-9--10-10-|
|-8888--7777--8888--9-9--10-10-|
|-6666--5555--6666--7-7---8--8-|


Riff3
|------------------------------------------------------|
|------------------------------------------------------|
|------------------------------------------------------|
|-2222--5555--7777--10-10--99--10-10--99--10-10--99--7-|
|-2222--5555--7777--10-10--99--10-10--99--10-10--99--7-|
|-0000--3333--5555---8--8--77---8--8--77---8--8--77--5-|



Riff4 (Outro)
|------------------------------------|
|------------------------------------|
|------------------------------------|
|-10-10--99--10-10--99--10-10--99--7-|
|-10-10--99--10-10--99--10-10--99--7-|
|--8--8--77---8--8--77---8--8--77--5-|


Intro     x1
Main riff x4
Riff 2    x1
Main Riff x1
Riff 3    x1
Main riff x4
Riff 2    x1
Main riff x1
Riff 3    x1
Main Riff x4 (Solo)
Mian Riff x2
Riff 2    x1
Main Riff x1
Riff 3    x1
Riff 4    x1

Tabbed By Greenday2003
Tap to rate this tab
# A B C D E F G H I J K L M N O P Q R S T U V W X Y Z