Song name
# A B C D E F G H I J K L M N O P Q R S T U V W X Y Z

Fighting With Wire - Everyone Needs A Nemesis tab

Artist: Fighting With Wire
Track: "Everyone Needs a Nemesis"
Track #: 2
Album: Man vs. Monster

The tuning is in Drop D half a step down. I'm pretty sure it's almost perfect, but what do I know.

pm - Palm Mute
h  - Hammer On
p  - Pull Off
x  - Chug
~  - Let Ring

Intro.
eb|--------------------xx-|
Bb|-----5---------5----xx-|
Gb|-----x(x7)-----x(x7)xx-|
Db|-444-2----0444-2----xx-|
Ab|-444------0444------xx-|
Db|-444------0444------xx-|

Intro. contd.
------------------    ------------------|
-----5555---------    -----8888---------|
---------6666-----(x2)---------6666-7777|(x2)
-444---------7777-    -777--------------|
-444--------------    -777--------------|
-444--------------    -777--------------|

Pre Verse
eb|-------------------|
Bb|-------------------|
Gb|-------------------|
Db|-4-0-4-0-4-0----2h4|(x2)
Ab|-4-0-4-0-4-0-4p0---|
Db|-4-0-4-0-4-0-------|

Verse
eb|-------------------------------------------|
Bb|-10-10-----9-----7------0-1010-------------|
Gb|-9--9-(x8)-9(x3)-9(x16)-------9p0----(x4)--|
Db|---------------------------------9h11------|(x3)
Ab|-------------------------------------------|
Db|-------------------------------------------|
pm     .      .     .

*On third time, after the palm mute bit, play the pre chorus.

Pre Chorus
eb|------------------|
Bb|-10----9----7-----|
Gb|-9-(x8)9(x8)9(x16)|
Db|------------------|
Ab|------------------|
Db|------------------|

Chorus
eb|--------------------------------|
Bb|--------------------------------|
Gb|----------------9-11------------|
Db|-0----4----7----x-x--7----9-----|(x2)
Ab|-0----4----7----7-9--7----9-----|
Db|-0(x5)4(x5)7(x5)-----7(x2)9(x10)|

*Repeat Pre Verse once

*Repeat Verse twice

*Repeat Pre Chorus Once

*Repeat Chorus three times


Part during the second and last chorus.
eb|-----------------------------------------------------------|
Bb|-9-10----9-10----9-10----9-10----9-10-----9-10-----9-10----|
Gb|-9-9-(x5)9-9-(x5)9-9-(x2)9-9-(x2)9-9-(x2)-9-9-(x2)-9-9-(x5)|

Pre Solo
eb|---5-5-5-----------|
Bb|---x-x-x-----------|
Gb|---2-2-2-----------|
Db|-44------7----9----|(x3)
Ab|-44------7(x4)9(x4)|
Db|-44------7----9----|

Solo
eb|---------------------------------12----9----14----16----------|
Bb|-10-9-7-7-----9-10-9-10-9-10-7~~-x-(x4)x(x4)x-(x4)x-(x4)15-14-|
Gb|-9--9-9-9(x2)-9-9--9-9--9-9--9~~-9-----6----11----13----x--x--|
Db|--------------------------------------------------------12-11-|
Ab|--------------------------------------------------------------|
Db|--------------------------------------------------------------|
                                                          ^-----^
                                                    strum really fast

*Repeat chorus 4 times

*The Outro is the same as the second part of the Intro.

*Finish by hitting open and pick sliding randomly after a time.
Tap to rate this tab
 
# A B C D E F G H I J K L M N O P Q R S T U V W X Y Z