Song name
# A B C D E F G H I J K L M N O P Q R S T U V W X Y Z

Fighting With Wire - Mutated tab

MUTATED

by Fighting With Wire

Guitar TAB by John McClean

Available at: http://soundcloud.com/fighting-with-wire/fighting-with-wire-mutated

Tuning: Drop Db


Riff (x8)

Eb-------------------|
Bb-------------------|
Gb-------------------|
Db--4---4-7-7---2----|
Ab--4---4-7-7---2----|
Db--4---4-7-7---2----|


Verse (x2)

Eb--x--x--x--|
Bb--x--x--x--|
Gb--x--x--x--|
Db--x--x--x--|
Ab--x--x--x--|
Db--x--x--x--|

Eb--x--x-----------------------|
Bb--x--x--5---5-----5---7p5----|
Gb--x--x--6---6---6---6-----6--|
Db--x--x--7---7----------------|
Ab--x--x--5---4----------------|
Db--x--x--0---4----------------|

Eb-------  --x--x--|
Bb-------  --x--x--|
Gb-------  --x--x--|
Db--<5>--  --x--x--|
Ab-------  --x--x--|
Db-------  --x--x--|

Eb--x--x-----------------------|
Bb--x--x--5---5-----5---7p5----|
Gb--x--x--6---6---6---6-----6--|
Db--x--x--7---7----------------|
Ab--x--x--5---4----------------|
Db--x--x--0---4----------------|


Chorus

Eb---------------------------------------------------|
Bb-------------------------7-----9-----10----10-10\--|
Gb--2------------------------------------------------|
Db--2--4--7----4--7--0-----4-----6-----7-----7--7\---|
Ab--0--4--5----4--7--0---0---0-0---0-0---0-0---------|
Db-----4--0----4--7--0---0---0-0---0-0---0-0---------|

Eb---------------------------------------------------|
Bb-------------------------7-----9-----10----10-10\--|
Gb--2------------------------------------------------|
Db--2--4--7----4--2--0-----4-----6-----7-----7--7\---|
Ab--0--4--5----4--2--0---0---0-0---0-0---0-0---------|
Db-----4--0----4--2--0---0---0-0---0-0---0-0---------|


End of chorus (x1)

Eb----------------------------------|
Bb--------7-----9-----10----10-10\--|
Gb----------------------------------|
Db--0-----4-----6-----7-----7--7\---|
Ab--0---0---0-0---0-0---0-0---------|
Db--0---0---0-0---0-0---0-0---------|


Repeat riff (x4)

Repeat verse (x1)

Repeat chorus

Repeat end of chorus (x1)

Repeat riff (x4)


Solo

whammy +1 octave, chorus

Eb-------  -------------------------------------------------------------|
Bb-------  --------------------------------------(12)r11b(12)r11--etc.--|
Gb--<5>--  --11--9---4-6\------11--13--4-6\-----------------------------|
Db-------  -------------------------------------------------------------|
Ab-------  --9---7---2-4\------9---11--2-4\-----------------------------|
Db-------  -------------------------------------------------------------|
             Tremolo
             pick

Last chorus

Eb-----  ------------------------------------------------------|
Bb-----  ----------------------------7-----9-----10----10-10\--|
Gb--2--  --2-2-2-----------------------------------------------|
Db--2--  --2-2-2-4--7----4--7--0-----4-----6-----7-----7--7\---|
Ab--0--  --0-0-0-4--5----4--7--0---0---0-0---0-0---0-0---------|
Db-----  --------4--0----4--7--0---0---0-0---0-0---0-0---------|
    Let
    ring

Eb--------------------------------------------|
Bb-------------------------7-----9-----10-----|
Gb--2-----------------------------------------|
Db--2--4--7----4--7--0-----4-----6-----7------|
Ab--0--4--5----4--7--0---0---0-0---0-0---0-0--|
Db-----4--0----4--7--0---0---0-0---0-0---0-0--|


Eb----------------------------------------|
Bb--------------7-----9-----10----10-10\--|
Gb----------------------------------------|
Db--4--7--0-----4-----6-----7-----7--7\---|
Ab--4--7--0---0---0-0---0-0---0-0---------|
Db--4--7--0---0---0-0---0-0---0-0---------|


Eb-----------|
Bb-----------|
Gb-----------|
Db--4--7--0--|
Ab--4--7--0--|
Db--4--7--0--|
Tap to rate this tab
# A B C D E F G H I J K L M N O P Q R S T U V W X Y Z