Song name
# A B C D E F G H I J K L M N O P Q R S T U V W X Y Z

Fightstar - Pant Your Target tab

Michel teelen again ;) ( voetbalgek5@hotmail.com ) ( jo shtehpho )


INTRO 2 times
e ---------0-----------------0------------------0----------------0-------|
B -----7-----------------7-----------------------------------------------|
G ---4---4---4---4-----4---4---4--4---------4-----4---4------4-----4---4-|
D -6-----------6-----6-----------6--------2---2-----2-------2--2-----2---|
A --------------------------------------4-----------------4--------------|
e -----------------------------------------------------------------------|

(electric version they scream loud and play hard but here IN THE ACOUSTIC VERSION you 
fast this acoustic riff)

e ---------0-----------------0------|
B -----7-----------------7----------|
G ---4---4---4---4-----4---4---4--4-|
D -6-----------6-----6-----------6--|
A ----------------------------------|
e ----------------------------------|

E---------0-----------------0-------|
B-----7-----------------7-----------|
G---4---4---4---4-----4---4---4--4--|
D-6-----------6-----6-----------6---|
A-----------------------------------|
E-----------------------------------|


e ---------0--------------0----------|
B -----------------------------------|
G -----4-----4--4-----4-----4--4-----|
D ---2---2----2-----2---2-----2------|
A -4--------------4------------------|
E -----------------------------------|

e ---------0--------------0----------|
B -----------------------------------|
G -----4-----4--4-----4-----4--4-----|
D ---2---2----2-----2---2-----2------|
A -4--------------4------------------|
E -----------------------------------|

e ---------0-----------|
B -----------0--0------|
G -----2------2--------|
D ---2---2-------------|
A -0-------------------|
E ---------------------|

e ---------0-----------|
B -----------0--0------|
G -----2------2--------|
D ---2---2-------------|
A -0-------------------|
E ---------------------|

VERSE 1:

e ---------0-----------------0------|
B -----7-----------------7----------|
G ---4---4---4---4-----4---4---4--4-|
D -6-----------6-----6-----------6--|
A ----------------------------------|
e ----------------------------------|

E---------0-----------------0-------|
B-----7-----------------7-----------|
G---4---4---4---4-----4---4---4--4--|
D-6-----------6-----6-----------6---|
A-----------------------------------|
E-----------------------------------|


e ---------0--------------0----------|
B -----------------------------------|
G -----4-----4--4-----4-----4--4-----|
D ---2---2----2-----2---2-----2------|
A -4--------------4------------------|
E -----------------------------------|

e ---------0--------------0----------|
B -----------------------------------|
G -----4-----4--4-----4-----4--4-----|
D ---2---2----2-----2---2-----2------|
A -4--------------4------------------|
E -----------------------------------|

e ---------0-----------|
B -----------0--0------|
G -----2------2--------|
D ---2---2-------------|
A -0-------------------|
E ---------------------|

e ---------0-----------|
B -----------0--0------|
G -----2------2--------|
D ---2---2-------------|
A -0-------------------|
E ---------------------|

REPEAT THIS ONE TIME


PRECHORUS 2 TIMES

e ---------0-----------------0------------------0----------------0-------|
B -----7-----------------7-----------------------------------------------|
G ---4---4---4---4-----4---4---4--4---------4-----4---4------4-----4---4-|
D -6-----------6-----6-----------6--------2---2-----2-------2--2-----2---|
A --------------------------------------4-----------------4--------------|
e -----------------------------------------------------------------------|


CHORUS

e |-------0C-----0C-----0C---|
B |-------0C-----0C-----0C---|
G |--1C---6C-----4C-----2C---|
D |--2C---6C-----4C-----2C---| Times 2
A |--2C---4C-----2C-----0C---|
E |--0C----------------------|

VERSE 2:

e ---------0-----------------0------|
B -----7-----------------7----------|
G ---4---4---4---4-----4---4---4--4-|
D -6-----------6-----6-----------6--|
A ----------------------------------|
e ----------------------------------|

E---------0-----------------0-------|
B-----7-----------------7-----------|
G---4---4---4---4-----4---4---4--4--|
D-6-----------6-----6-----------6---|
A-----------------------------------|
E-----------------------------------|


e ---------0--------------0----------|
B -----------------------------------|
G -----4-----4--4-----4-----4--4-----|
D ---2---2----2-----2---2-----2------|
A -4--------------4------------------|
E -----------------------------------|

e ---------0--------------0----------|
B -----------------------------------|
G -----4-----4--4-----4-----4--4-----|
D ---2---2----2-----2---2-----2------|
A -4--------------4------------------|
E -----------------------------------|

e ---------0-----------|
B -----------0--0------|
G -----2------2--------|
D ---2---2-------------|
A -0-------------------|
E ---------------------|

e ---------0-----------|
B -----------0--0------|
G -----2------2--------|
D ---2---2-------------|
A -0-------------------|
E ---------------------|

REPEAT THIS ONE TIME


PRECHORUS 2 TIMES

e ---------0-----------------0------------------0----------------0-------|
B -----7-----------------7-----------------------------------------------|
G ---4---4---4---4-----4---4---4--4---------4-----4---4------4-----4---4-|
D -6-----------6-----6-----------6--------2---2-----2-------2--2-----2---|
A --------------------------------------4-----------------4--------------|
e -----------------------------------------------------------------------|


CHORUS

e |-------0C-----0C-----0C---|
B |-------0C-----0C-----0C---|
G |--1C---6C-----4C-----2C---|
D |--2C---6C-----4C-----2C---| Times 2
A |--2C---4C-----2C-----0C---|
E |--0C----------------------|

BRIDGE

e |-------0C-----0C-----0C---|
B |-------0C-----0C-----0C---|
G |--1C---6C-----4C-----2C---|
D |--2C---6C-----4C-----2C---| Times 2
A |--2C---4C-----2C-----0C---|
E |--0C----------------------|

OUTRO/CHORUS
e |-------0C-----0C-----0C---|
B |-------0C-----0C-----0C---|
G |--1C---6C-----4C-----2C---|
D |--2C---6C-----4C-----2C---| Times 3
A |--2C---4C-----2C-----0C---|
E |--0C----------------------|

!
Tap to rate this tab
# A B C D E F G H I J K L M N O P Q R S T U V W X Y Z