Song name
# A B C D E F G H I J K L M N O P Q R S T U V W X Y Z

Fightstar - I Am The Message tab

Fightstar-I Am The Message
Taken From The Album "One Day Son, This Will All Be Yours"

I'm pretty sure this is correct or not to far off of being perfect.

Song Structure:
Intro
Verse
Bridge
Chorus
Intro
Verse
Bridge
Chorus
Break
Chorus


Clean Intro (Guitar 1)

d#|----------------------------------------------|
a#|----------------------------------------------|
f#|----------------------------------------------|
c#|-5-5-5-5-3-2-2-0-2-3-3-3-3-3-3-3--------------|Play 4 times during
g#|3-3-3-3-3-3-3-3-3-3-3-3-3-3-3-3-3-------------|the intro and play through
c#|----------------------------------------------|the verse.


Distorted Intro (Guitar 2)

d#|----------------------------------------------|
a#|----------------------------------------------|
f#|5/9--5/9---5-7-9-5----------------------------|
c#|x-x--x-x---x-x-x-x----------------------------|X2
g#|3/7--3/7---3-5-7-3----------------------------|
c#|----------------------------------------------|


Clean Verse (Guitar 2)

Take Our Virtues Up In Arms...
d#|----------------------------------------------|
a#|------10----10----10--------------------------|
f#|----12--12----12----12--12--------------------|
c#|--10------10----10----10----------------------|X4
g#|----------------------------------------------|
c#|10--------------------------------------------|


Bridge Clean(Guitar 1)

Halo, You Mean Nothing To Me...
d#|------------------------------------------------------------------|
a#|------------------------------------------------------------------|
f#|------------------------------------------------------------------|
c#|--------------------------------5-5-3-----------------------------|
g#|3-3-3-3-3-3-3-3-5-5-5-7-7-7-7-7-------0-0-0-0-0-0-3-3-3-2-2-2-2-2-|
c#|------------------------------------------------------------------|


Bridge Clean(Guitar 2)

d#|------10----10----10----10--------------------|
a#|--13----13----13----13----13--13--------------|
f#|12--12----12----12----12----12----------------|
c#|----------------------------------------------|
g#|----------------------------------------------|
c#|----------------------------------------------|


Chorus Distortion (Guitar 1)

If I Am The Message...
d#|-------------------------------------------------------------------------|
a#|-------------------------------------------------------------------------|
f#|-------------------------------------------------------------------------|
c#|10-10-10-10-10-10-10-10-3-3-3-3-3-3-3-3-7-7-7-7-7-7-7-7-3-3-3-3-3-3-3-3--|
g#|10-10-10-10-10-10-10-10-3-3-3-3-3-3-3-3-7-7-7-7-7-7-7-7-3-3-3-3-3-3-3-3--|
c#|10-10-10-10-10-10-10-10-3-3-3-3-3-3-3-3-7-7-7-7-7-7-7-7-3-3-3-3-3-3-3-3--|

d#|------------------------------------------------------------------------|
a#|------------------------------------------------------------------------|
f#|------------------------------------------------------------------------|
c#|10-10-10-10-10-10-10-10-3-3-3-3-3-3-3-3-7-7-7-7-7-7-7-7-3~--------------|
g#|10-10-10-10-10-10-10-10-3-3-3-3-3-3-3-3-7-7-7-7-7-7-7-7-3~--------------|
c#|10-10-10-10-10-10-10-10-3-3-3-3-3-3-3-3-7-7-7-7-7-7-7-7-3~--------------|


Chorus Clean (Guitar 2)

d#|------10----10----12----13----15----15----15-------|
a#|--13----13----13----13----13----13----13----13--13-|
f#|12--12----12----12----12----12----12----12----12---|
c#|---------------------------------------------------|
g#|---------------------------------------------------|
c#|---------------------------------------------------|

d#|------10----10----12----13----15----15----15-----|
a#|--13----13----13----13----13----13----13---------|
f#|12--12----12----12----12----12----12----12-------|
c#|-------------------------------------------------|
g#|-------------------------------------------------|
c#|-------------------------------------------------|


Clean Intro (Guitar 1)

d#|----------------------------------------------|
a#|----------------------------------------------|
f#|----------------------------------------------|
c#|-5-5-5-5-3-2-2-0-2-3-3-3-3-3-3-3--------------|Play 2 times during
g#|3-3-3-3-3-3-3-3-3-3-3-3-3-3-3-3-3-------------|the intro and play through
c#|----------------------------------------------|the verse.


Distorted Intro (Guitar 2)

d#|----------------------------------------------|
a#|----------------------------------------------|
f#|5/9--5/9---5-7-9-5----------------------------|
c#|x-x--x-x---x-x-x-x----------------------------|X2
g#|3/7--3/7---3-5-7-3----------------------------|
c#|----------------------------------------------|


Clean Intro (Guitar 3)

d#|------10----10----12----12----15----15----15-------|
a#|--13----13----13----13----13----13----13----13--13-|
f#|12--12----12----12----12----12----12----12----12---|
c#|---------------------------------------------------|
g#|---------------------------------------------------|
c#|---------------------------------------------------|

d#|------10----10----12----12----15-------------------|
a#|--13----13----13----13----13-----------------------|
f#|12--12----12----12----12----12---------------------|
c#|---------------------------------------------------|
g#|---------------------------------------------------|
c#|---------------------------------------------------|


Clean Verse (Guitar 2)

Wear Our Scars Above Our Arms...
d#|----------------------------------------------|
a#|------10----10----10--------------------------|
f#|----12--12----12----12--12--------------------|
c#|--10------10----10----10----------------------|X4
g#|----------------------------------------------|
c#|10--------------------------------------------|


Bridge Clean(Guitar 1)

Halo, You Mean Nothing To Me...
d#|------------------------------------------------------------------|
a#|------------------------------------------------------------------|
f#|------------------------------------------------------------------|
c#|--------------------------------5-5-3-----------------------------|
g#|3-3-3-3-3-3-3-3-5-5-5-7-7-7-7-7-------0-0-0-0-0-0-3-3-3-2-2-2-2-2-|
c#|------------------------------------------------------------------|

Bridge Clean (Guitar 2)

d#|------10----10----10----10--------------------|
a#|--13----13----13----13----13--13--------------|
f#|12--12----12----12----12----12----------------|
c#|----------------------------------------------|
g#|----------------------------------------------|
c#|----------------------------------------------|


Chorus Distortion (Guitar 1)

If I Am The Message...
d#|-------------------------------------------------------------------------|
a#|-------------------------------------------------------------------------|
f#|-------------------------------------------------------------------------|
c#|10-10-10-10-10-10-10-10-3-3-3-3-3-3-3-3-7-7-7-7-7-7-7-7-3-3-3-3-3-3-3-3--|
g#|10-10-10-10-10-10-10-10-3-3-3-3-3-3-3-3-7-7-7-7-7-7-7-7-3-3-3-3-3-3-3-3--|
c#|10-10-10-10-10-10-10-10-3-3-3-3-3-3-3-3-7-7-7-7-7-7-7-7-3-3-3-3-3-3-3-3--|

d#|------------------------------------------------------------------------|
a#|------------------------------------------------------------------------|
f#|------------------------------------------------------------------------|
c#|10-10-10-10-10-10-10-10-3-3-3-3-3-3-3-3-7-7-7-7-7-7-7-7-3-3-3-3-3-3-3-3-|
g#|10-10-10-10-10-10-10-10-3-3-3-3-3-3-3-3-7-7-7-7-7-7-7-7-3-3-3-3-3-3-3-3-|
c#|10-10-10-10-10-10-10-10-3-3-3-3-3-3-3-3-7-7-7-7-7-7-7-7-3-3-3-3-3-3-3-3-|


Chorus Clean (Guitar 2)

d#|------10----10----12----13----15----15----15-------|
a#|--13----13----13----13----13----13----13----13--13-|
f#|12--12----12----12----12----12----12----12----12---|
c#|---------------------------------------------------|
g#|---------------------------------------------------|
c#|---------------------------------------------------|

d#|------10----10----12----13----15----15----15-------15------------15-----|
a#|--13----13----13----13----13----13----13-------13----13------13----13---|
f#|12--12----12----12----12----12----12----12---12--12----12--12--12----12-|
c#|------------------------------------------------------------------------|
g#|------------------------------------------------------------------------|
c#|------------------------------------------------------------------------|


Break

I'm not sure what to play here but I guess you could just play in the right key and it 
sound good.


Ending Chorus Distortion (Guitar 1)

If I Am The Message...
d#|-------------------------------------------------------------------------|
a#|-------------------------------------------------------------------------|
f#|-------------------------------------------------------------------------|
c#|10-10-10-10-10-10-10-10-3-3-3-3-3-3-3-3-7-7-7-7-7-7-7-7-3-3-3-3-3-3-3-3--|
g#|10-10-10-10-10-10-10-10-3-3-3-3-3-3-3-3-7-7-7-7-7-7-7-7-3-3-3-3-3-3-3-3--|
c#|10-10-10-10-10-10-10-10-3-3-3-3-3-3-3-3-7-7-7-7-7-7-7-7-3-3-3-3-3-3-3-3--|

d#|------------------------------------------------------------------------|
a#|------------------------------------------------------------------------|
f#|------------------------------------------------------------------------|
c#|10-10-10-10-10-10-10-10-3-3-3-3-3-3-3-3-7-7-7-7-7-7-7-7-3-3-3-3-3-3-3-3-|
g#|10-10-10-10-10-10-10-10-3-3-3-3-3-3-3-3-7-7-7-7-7-7-7-7-3-3-3-3-3-3-3-3-|
c#|10-10-10-10-10-10-10-10-3-3-3-3-3-3-3-3-7-7-7-7-7-7-7-7-3-3-3-3-3-3-3-3-|

d#|--------------------------------------------------------------------------|
a#|--------------------------------------------------------------------------|
f#|2-2-2-2-2-2-2-2-4-4-4-5-5-5-5-7-9-----------------------------------------|
c#|----------------------------------3-3-3-3-3-3-0-0-0-5-5-5-5---------------|
g#|0-0-0-0-0-0-0-0-2-2-2-3-3-3-3-5-7-3-3-3-3-3-3-0-0-0-5-5-5-5---------------|
c#|----------------------------------3-3-3-3-3-3-0-0-0-5-5-5-5---------------|

d#|------------------------------------------------------------------------|
a#|------------------------------------------------------------------------|
f#|2-2-2-2-2-2-2-2-4-4-4-5-5-5-5-7-9---------------------------------------|
c#|----------------------------------3-3-3-3-3-3~--------------------------|
g#|0-0-0-0-0-0-0-0-2-2-2-3-3-3-3-5-7-3-3-3-3-3-3~--------------------------|
c#|----------------------------------3-3-3-3-3-3~--------------------------|


Chorus Clean (Guitar 2)

d#|------10----10----12----13----15----15----15-------|
a#|--13----13----13----13----13----13----13----13--13-|
f#|12--12----12----12----12----12----12----12----12---|
c#|---------------------------------------------------|
g#|---------------------------------------------------|
c#|---------------------------------------------------|

d#|------10----10----12----13----15----15----15-----|
a#|--13----13----13----13----13----13----13---------|
f#|12--12----12----12----12----12----12----12-------|
c#|-------------------------------------------------|
g#|-------------------------------------------------|
c#|-------------------------------------------------|

Lyrics:

We Take Our Virtues Up In Arms
To Save Ourselves
Tonight Our Fighting Friends Will Stand Here
And Die With Us

Halo, You Mean Nothing To Me
Angel, You Mean Nothing To Me

If I Am The Message
Then You Are The Machine

We'll Wear Our Scars Above Our Arms
And Covered Up
Should We Keep This Open Ended
And Just For Us

Halo, You Mean Nothing To Me
Angel, You Mean Nothing To Me

If I Am The Message
Then You Are The Machine

Just Take A Look At Yourself
You'd See Reflections In All Your Impurities
The Taste, Taste Of A Burnt Tongue

If I Am The Message
Then You Are The Machine
You Mean Nothing To Me
Tap to rate this tab
# A B C D E F G H I J K L M N O P Q R S T U V W X Y Z