Song name
# A B C D E F G H I J K L M N O P Q R S T U V W X Y Z

Fightstar - Wheres The Money Lebowski tab

Band: Fightstar
Song: Wheres the money Lebowski?
Album: Alternate Endings - B-side

I haven't got the whole song down, sorry but heres most of it :)

Intro Part 1:

D|--------------------------------------------------------------------------|
A|--------------------------------------------------------------------------|
F|--------------------------------------------------------------------------|
G|-0-0-------------------------------0-0------------------------------------|
G|-0-0--10-0-8-0-7-0-8-0-7-0-5-0-4-0-0-0-10-0-8-0-7-0-8-0-7-5h7p5h7p4-------|
C|-0-0-------------------------------0-0------------------------------------|
P.M|-------------------------------------------------------|

X4

Intro Part 2:

D|--------------------------------------------------------------------------|
A|--------------------------------------------------------------------------|
F|--------------------------------------------------------------------------|
G|-12--11-12-0--12-11--10-12-10--12--11-12-0--12-11--10-12-14---------------|
G|-12--11-12-0--12-11--8--10-8---12--11-12-0--12-11--8--10-12---------------|
C|-12--11-12-0--12-11------------12--11-12-0--12-11-------------------------|

D|--------------------------------------------------------------------------|
A|--------------------------------------------------------------------------|
F|--------------------------------------------------------------------------|
G|-12--11-12-0--12-11--10-12-10--12--11-12-0-0------------------------------|
G|-12--11-12-0--12-11--8--10-8---12--11-12-0-0-8-0-7-0-5-0-4-0--------------|
C|-12--11-12-0--12-11------------12--11-12-0-0------------------------------|


Verse:

D|--------------------------------------------------------------------------|
A|--------------------------------------------------------------------------|
F|-----2-2-4-4-5-----2-2-4-4-5-5-------------2-------------2-2--------------|
G|-2-2-----------2-2-------------0-0-4-4-6-6---0-0-4-4-6-6------------------|
G|-2-2-----------2-2-------------0-0-----------0-0--------------------------|
C|-2-2-----------2-2-------------0-0-----------0-0--------------------------|

thats all i have for the verse, sorry.

Pre Chorus:

D|--------------------------------------------------------------------------|
A|--------------------------------------------------------------------------|
F|--------------------------------------------------------------------------|
G|-0-10-0-9-0-7-0-6---------------------------------------------------------|
G|-0-8--0-7-0-5-0-4---------------------------------------------------------|
C|-0----0---0---0-----------------------------------------------------------|

X2

Palm mute all the 0's the first time through, not the second though.

X2

Chorus:

D|---------------------------------------------------------------------------------|
A|---------------------------------------------------------------------------------|
F|---------------------------------------------------------------------------------|
G|-0-0-15-15-0-0-15-15-0-0-15-15-0-0-15-15-0-0-14-14-0-0-14-14-0-0-14-14-0-0-14-14-|
G|-0-0-15-15-0-0-15-15-0-0-15-15-0-0-15-15-0-0-14-14-0-0-14-14-0-0-14-14-0-0-14-14-|
C|-0-0-15-15-0-0-15-15-0-0-15-15-0-0-15-15-0-0-14-14-0-0-14-14-0-0-14-14-0-0-14-14-|

D|---------------------------------------------------------------------------------|
A|---------------------------------------------------------------------------------|
F|---------------------------------------------------------------------------------|
G|-13-13-10-10-13-13-10-10-13-13-10-10-13-13-10-10-0-0-7-7-0-0-7-7-0-0-7-7-0-0-7-7-|
G|-13-13-10-10-13-13-10-10-13-13-10-10-13-13-10-10-0-0-7-7-0-0-7-7-0-0-7-7-0-0-7-7-|
C|-13-13-10-10-13-13-10-10-13-13-10-10-13-13-10-10-0-0-7-7-0-0-7-7-0-0-7-7-0-0-7-7-|

D|---------------------------------------------------------------------------------|
A|---------------------------------------------------------------------------------|
F|---------------------------------------------------------------------------------|
G|-0-0-15-15-0-0-15-15-0-0-15-15-0-0-15-15-0-0-14-14-0-0-14-14-0-0-14-14-0-0-14-14-|
G|-0-0-15-15-0-0-15-15-0-0-15-15-0-0-15-15-0-0-14-14-0-0-14-14-0-0-14-14-0-0-14-14-|
C|-0-0-15-15-0-0-15-15-0-0-15-15-0-0-15-15-0-0-14-14-0-0-14-14-0-0-14-14-0-0-14-14-|

D|---------------------------------------------------------------------------------|
A|---------------------------------------------------------------------------------|
F|---------------------------------------------------------------------------------|
G|-13-13-10-10-13-13-10-10-13-13-10-10-13-13-10-10-0-0-7-7-0-0-7-0-8-0-7-0-5-0-4-0-|
G|-13-13-10-10-13-13-10-10-13-13-10-10-13-13-10-10-0-0-7-7-0-0-7-0-8-0-7-0-5-0-4-0-|
C|-13-13-10-10-13-13-10-10-13-13-10-10-13-13-10-10-0-0-7-7-0-0-7-0-8-0-7-0-5-0-4-0-|


Structure Goes:
Intro Part 1 X4
Intro part 2 X2
Verse X2
Pre chorus X2
Chorus X2
Pre chorus X2
Verse X2
Pre chorus X2
Chorus X2

thats all i've got, sorry about only having half the verse and not having the
breakdown bit either :/

Enjoy the rest tho :P
Tap to rate this tab
# A B C D E F G H I J K L M N O P Q R S T U V W X Y Z