Song name
# A B C D E F G H I J K L M N O P Q R S T U V W X Y Z

Fightstar - The English Way tab

-------------------------------------------------------------------------------
			     The English Way - Fightstar
-------------------------------------------------------------------------------
Tabbed by:thomgreenwood99
Email:thomgreenwood@hotmail.co.uk

Tuning:Drop C#

Verse after the drums (Al's bit)

|8x16-10x8-12x8----7x16-10x8-12x8----5x16-10x8-12x8------3x24---------------|
|---------------------------------------------------------------------------|
|---------------------------------------------------------------------------|
|---------------------------------------------------------------------------|
|---------------------------------------------------------------------------|
|---------------------------------------------------------------------------|

Charlie's Bit 

|---------------------------------------------------------------------------|
|---------------------------------------------------------------------------|
|-9-----7------5------4-----------------------------------------------------|
|-7-----5------3------2-----------------------------------------------------|
|-7-----5------3------2-----------------------------------------------------|
|-7-----5------3------2-----------------------------------------------------|


escaped through the night bit (Charlie)

|---------------------------------------------------------------------------|
|---------------------------------------------------------------------------|
|---------------------------------------------------------------------------|
|---------------------------------------------------------------------------|
|---------------------------------------------------------------------------|
|7/14\7-x4--5/12\5-x4--3/10\3-x4--2/9\2x4-----------------------------------|


(Al)


|---10--12--------------10--12-------------15--12--------------15--12-------|
|10---------10------10---------8--------10----------13------10----------12--|
|---------------------------------------------------------------------------|
|---------------------------------------------------------------------------|
|---------------------------------------------------------------------------|
|---------------------------------------------------------------------------|


Pre-Chorus

|------------------------------------------------------------------------------------------|
|------------------------------------------------------------------------------------------|
|------------------------------------------------------------------------------------------|
|0-0-0-0-0-0-0-0-0-0-0-0--9-9-9-9-9-9-9-9-9-9-9-9--5-5-5-5-5-5-5-5-5-5-5-5-5-5-5-5-5-5-5-5-|
|0-0-0-0-0-0-0-0-0-0-0-0--9-9-9-9-9-9-9-9-9-9-9-9--5-5-5-5-5-5-5-5-5-5-5-5-5-5-5-5-5-5-5-5-|
|0-0-0-0-0-0-0-0-0-0-0-0--9-9-9-9-9-9-9-9-9-9-9-9--5-5-5-5-5-5-5-5-5-5-5-5-5-5-5-5-5-5-5-5-| x2

Chorus (Charlie)

|--------------------------------------------------------------------------|
|--------------------------------------------------------------------------|
|4-4-4-4-4-4-4-4-4-4-4-4-6-6-6-6-7-7-7-7-7-7-7-7-7-7-7-7-7-7-7-7-----------|
|2-2-2-2-2-2-2-2-2-2-2-2-4-4-4-4-5-5-5-5-5-5-5-5-5-5-5-5-5-5-5-5-----------|
|2-2-2-2-2-2-2-2-2-2-2-2-4-4-4-4-5-5-5-5-5-5-5-5-5-5-5-5-5-5-5-5-----------|
|2-2-2-2-2-2-2-2-2-2-2-2-4-4-4-4-5-5-5-5-5-5-5-5-5-5-5-5-5-5-5-5-----------|


|------------------------------------------------------------------------------------------|
|------------------------------------------------------------------------------------------|
|------------------------------------------------9--9--9--9--9--9--9--9--9--9--9--9--9-----|
|12-12-12-12-12-12-12-12-12-12-12-12-12-12-12-12-11-11-11-11-11-11-11-11-11-11-11-11-11--0-|
|9--9--9--9--9--9--9--9--9--9--9--9--9--9--9--9--7--7--7--7--7--7--7--7--7--7--7--7--7---0-|
|0--0--0--0--0--0--0--0--0--0--0--0--0--0--0--0--7--7--7--7--7--7--7--7--7--7--7--7--7---0-|


(Al)

|-10-------10------10------10------10---------------------------------------|
|----10-------10------10------10------10------------------------------------|
|-------12-------12------12------12------12----------x2---------------------|
|---------------------------------------------------------------------------|
|---------------------------------------------------------------------------|
|---------------------------------------------------------------------------|


|-5-------5--------5--------5-------5---------------------------------------|
|----5-------5--------5--------5-------5------------------------------------|
|-------7-------7--------7--------7-------7---------x2----------------------|
|---------------------------------------------------------------------------|
|---------------------------------------------------------------------------|
|---------------------------------------------------------------------------|



Verse after the little bass riff (Al's bit)

|8x16-10x8-12x8----7x16-10x8-12x8----5x16-10x8-12x8------3x24---------------|
|---------------------------------------------------------------------------|
|---------------------------------------------------------------------------|
|---------------------------------------------------------------------------|
|---------------------------------------------------------------------------|
|---------------------------------------------------------------------------|

Charlie's Bit 

|---------------------------------------------------------------------------|
|---------------------------------------------------------------------------|
|-9-----7------5------4-----------------------------------------------------|
|-7-----5------3------2-----------------------------------------------------|
|-7-----5------3------2-----------------------------------------------------|
|-7-----5------3------2-----------------------------------------------------|


escaped through the night bit (Charlie)

|---------------------------------------------------------------------------|
|---------------------------------------------------------------------------|
|---------------------------------------------------------------------------|
|---------------------------------------------------------------------------|
|---------------------------------------------------------------------------|
|7/14\7-x4--5/12\5-x4--3/10\3-x4--2/9\2x4-----------------------------------|


(Al)

|---10--12--------------10--12-------------15--12--------------15--12-------|
|10---------10------10---------8--------10----------13------10----------12--|
|---------------------------------------------------------------------------|
|---------------------------------------------------------------------------|
|---------------------------------------------------------------------------|
|---------------------------------------------------------------------------|


Pre-Chorus

|------------------------------------------------------------------------------------------|
|------------------------------------------------------------------------------------------|
|------------------------------------------------------------------------------------------|
|0-0-0-0-0-0-0-0-0-0-0-0--9-9-9-9-9-9-9-9-9-9-9-9--5-5-5-5-5-5-5-5-5-5-5-5-5-5-5-5-5-5-5-5-|
|0-0-0-0-0-0-0-0-0-0-0-0--9-9-9-9-9-9-9-9-9-9-9-9--5-5-5-5-5-5-5-5-5-5-5-5-5-5-5-5-5-5-5-5-|
|0-0-0-0-0-0-0-0-0-0-0-0--9-9-9-9-9-9-9-9-9-9-9-9--5-5-5-5-5-5-5-5-5-5-5-5-5-5-5-5-5-5-5-5-| x2

Chorus (Charlie)

|--------------------------------------------------------------------------|
|--------------------------------------------------------------------------|
|4-4-4-4-4-4-4-4-4-4-4-4-6-6-6-6-7-7-7-7-7-7-7-7-7-7-7-7-7-7-7-7-----------|
|2-2-2-2-2-2-2-2-2-2-2-2-4-4-4-4-5-5-5-5-5-5-5-5-5-5-5-5-5-5-5-5-----------|
|2-2-2-2-2-2-2-2-2-2-2-2-4-4-4-4-5-5-5-5-5-5-5-5-5-5-5-5-5-5-5-5-----------|
|2-2-2-2-2-2-2-2-2-2-2-2-4-4-4-4-5-5-5-5-5-5-5-5-5-5-5-5-5-5-5-5-----------|


|------------------------------------------------------------------------------------------|
|------------------------------------------------------------------------------------------|
|------------------------------------------------9--9--9--9--9--9--9--9--9--9--9--9--9-----|
|12-12-12-12-12-12-12-12-12-12-12-12-12-12-12-12-11-11-11-11-11-11-11-11-11-11-11-11-11--0-|
|9--9--9--9--9--9--9--9--9--9--9--9--9--9--9--9--7--7--7--7--7--7--7--7--7--7--7--7--7---0-|
|0--0--0--0--0--0--0--0--0--0--0--0--0--0--0--0--7--7--7--7--7--7--7--7--7--7--7--7--7---0-|

(Al)

|-10-------10------10------10------10---------------------------------------|
|----10-------10------10------10------10------------------------------------|
|-------12-------12------12------12------12----------x2---------------------|
|---------------------------------------------------------------------------|
|---------------------------------------------------------------------------|
|---------------------------------------------------------------------------|


|-5-------5--------5--------5-------5---------------------------------------|
|----5-------5--------5--------5-------5------------------------------------|
|-------7-------7--------7--------7-------7---------x2----------------------|
|---------------------------------------------------------------------------|
|---------------------------------------------------------------------------|
|---------------------------------------------------------------------------|




Choir Bit

|------------------------------------------------------------------------------------------------|
|------------------------------------------------------------------------------------------------|
|------------------------------------------------------------------------------------------------|
|0-0-0-0-0-0-0-0-0-0-0-0-5-5-5-5-5-5-5-5-5-5-5-5-9-9-9-9-9-9-9-9-9-9-9-9-5-5-5-5-5-5-5-5-5-5-5-5-|
|0-0-0-0-0-0-0-0-0-0-0-0-5-5-5-5-5-5-5-5-5-5-5-5-9-9-9-9-9-9-9-9-9-9-9-9-5-5-5-5-5-5-5-5-5-5-5-5-|
|0-0-0-0-0-0-0-0-0-0-0-0-5-5-5-5-5-5-5-5-5-5-5-5-9-9-9-9-9-9-9-9-9-9-9-9-5-5-5-5-5-5-5-5-5-5-5-5-|
 x2


Chorus (Charlie)

|--------------------------------------------------------------------------|
|--------------------------------------------------------------------------|
|4-4-4-4-4-4-4-4-4-4-4-4-6-6-6-6-7-7-7-7-7-7-7-7-7-7-7-7-7-7-7-7-----------|
|2-2-2-2-2-2-2-2-2-2-2-2-4-4-4-4-5-5-5-5-5-5-5-5-5-5-5-5-5-5-5-5-----------|
|2-2-2-2-2-2-2-2-2-2-2-2-4-4-4-4-5-5-5-5-5-5-5-5-5-5-5-5-5-5-5-5-----------|
|2-2-2-2-2-2-2-2-2-2-2-2-4-4-4-4-5-5-5-5-5-5-5-5-5-5-5-5-5-5-5-5-----------|


|------------------------------------------------------------------------------------------|
|------------------------------------------------------------------------------------------|
|------------------------------------------------9--9--9--9--9--9--9--9--9--9--9--9--9-----|
|12-12-12-12-12-12-12-12-12-12-12-12-12-12-12-12-11-11-11-11-11-11-11-11-11-11-11-11-11--0-|
|9--9--9--9--9--9--9--9--9--9--9--9--9--9--9--9--7--7--7--7--7--7--7--7--7--7--7--7--7---0-|
|0--0--0--0--0--0--0--0--0--0--0--0--0--0--0--0--7--7--7--7--7--7--7--7--7--7--7--7--7---0-|

(Al)

|-10-------10------10------10------10---------------------------------------|
|----10-------10------10------10------10------------------------------------|
|-------12-------12------12------12------12----------x2---------------------|
|---------------------------------------------------------------------------|
|---------------------------------------------------------------------------|
|---------------------------------------------------------------------------|


|-5-------5--------5--------5-------5---------------------------------------|
|----5-------5--------5--------5-------5------------------------------------|
|-------7-------7--------7--------7-------7---------x2----------------------|
|---------------------------------------------------------------------------|
|---------------------------------------------------------------------------|
|---------------------------------------------------------------------------|


Outro


e|----------------------------------------------------------------------------------|
B|----------------------------------------------------------------------------------|
G|----------------------------------------------------------------------------------|
D|--------------------0-2-2-----------------------0-2-2-----------------------0-2-2-|
A|--------------------0-2-2-----------------------0-2-2-----------------------0-2-2-|
E|2/9\2-2/9\2-2/9\2---0-2-2---2/9\2-2/9\2-2/9\2---0-2-2---2/9\2-2/9\2-2/9\2---0-2-2-|




| /  slide up
| \  slide down
| h  hammer-on
| p  pull-off
| ~  vibrato
| +  harmonic
| x  Mute note
===============================================================================
Tap to rate this tab
# A B C D E F G H I J K L M N O P Q R S T U V W X Y Z