Song name
# A B C D E F G H I J K L M N O P Q R S T U V W X Y Z

Fightstar - Days I Recall Being Wonderul Acoustic tab

Help us improve GuitareTab! Take a short survey!
I dont know if its exact and you'll have to listen to it to get the rythm.
This is my first online tab - ENJOY!

Mike F	;-D


Gtr I (C G C F A D) - 'Days I Recall Being Wonderful'

Intro + Verse
|---------0----------------0---------------0---------------0---------------0-------|
|----------------------------------------------------------------------------------|
|-----2-----2---2------2-----2---2-----2-----2---2-----2-----2---2-----2-----2-----|
|---2---2-----2------2---2-----2-----2---2-----2-----2---2-----2-----2---2-----2---|
|-0----------------0---------------------------------------------------------------|
|----------------------------------0---------------0---------------2---------------|
"Would you trade me for more.."

----------0---------------0---------------0-----------||
-----------------------------------------------------o||
2-----2------2---2-----2-----2---2-----2------2---2---||
---2---2------2-----2---2-----2-----2---2------2------||
-----------------------------------------------------o||
-2----------------4---------------4-------------------||

Chorus
|---------------------------------------------------------------------|
|---------------------------------------------------------------------|
|---------------------------------------------------------------------|
|-0-0-0-0-0-0-0-0-0-0-0-0-0-0-0-0-2-2-2-2-2-2-2-2-4-4-4-4-4-4-4-4-4---|
|-0-0-0-0-0-0-0-0-0-0-0-0-0-0-0-0-2-2-2-2-2-2-2-2-4-4-4-4-4-4-4-4-4---|
|-0-0-0-0-0-0-0-0-0-0-0-0-0-0-0-0-2-2-2-2-2-2-2-2-4-4-4-4-4-4-4-4-4---|
"And i know, you..."

Chorus (continued)
|--------------------------------------------|
|--------------------------------------------|
|-1-1-1-1-1-2-2-2-2-2-1-1-1-1-1-2-2-2-2-2----|
|-0-0-0-0-0-0-0-0-0-0-0-0-0-0-0-0-0-0-0-0----|
|-0-0-0-0-0-0-0-0-0-0-0-0-0-0-0-0-0-0-0-0----|
|-0-0-0-0-0-0-0-0-0-0-0-0-0-0-0-0-0-0-0-0----|

...."fine"

Generated using Power Tab Editor
Related for Days I Recall Being Wonderul Acoustic tab