Song name
# A B C D E F G H I J K L M N O P Q R S T U V W X Y Z

Fightstar - Here Again tab

-------------------------------------------------------------------------------
                 	     Here Again - Fightstar
-------------------------------------------------------------------------------
Tabbed by: Ciaran Plummer
Email: just_ciaran@hotmail.co.uk

Tuning: drop C#

<>

Intro (Times 2)
D#|----------------------------------------------------------|
A#|-------0-------------0-------------14------------14-------|
F#|----------------------------------------------------------|
C#|---4-----4---4---4-----4---4---12----12--12--12----12--12-|
G#|-2---2-----2---2---2-----2---14--14----14--14--14----14---|
C#|----------------------------------------------------------|

D#|-------0-------------0-------------------------------------|
A#|-------0-------------0--------------0--------------0-------|
F#|-----------------------------------------------------------|
C#|---9-----9---9---9-----9---9---12-----12--12---7-----7---7-|
G#|-7---7-----7---7---7-----7---10--10-----10---5---5-----5---|
C#|-----------------------------------------------------------|

Verse (Times 2)
D#|----------------------------------------------------------|
A#|-------0-------------0-------------14------------14-------|
F#|----------------------------------------------------------|
C#|---4-----4---4---4-----4---4---12----12--12--12----12--12-|
G#|-2---2-----2---2---2-----2---14--14----14--14--14----14---|
C#|----------------------------------------------------------|

D#|-------0-------------0-------------------------------------|
A#|-------0-------------0--------------0--------------0-------|
F#|-----------------------------------------------------------|
C#|---9-----9---9---9-----9---9---12-----12--12---7-----7---7-|
G#|-7---7-----7---7---7-----7---10--10-----10---5---5-----5---|
C#|-----------------------------------------------------------|


Chorus (Times 2)
D#|--------------------------------------|
A#|--------------------------------------|
F#|-11-11-11--7-7-7--9-9-9--4~-4~-4~-4~--|
C#|--9--9--9--5-5-5--7-7-7--2~-2~-2~-2~--|
G#|--9--9--9--5-5-5--7-7-7--2~-2~-2~-2~--|
C#|--9--9--9--5-5-5--7-7-7--2~-2~-2~-2~--|

Verse 
D#|----------------------------------------------------------|
A#|-------0-------------0-------------14------------14-------|
F#|----------------------------------------------------------|
C#|---4-----4---4---4-----4---4---12----12--12--12----12--12-|
G#|-2---2-----2---2---2-----2---14--14----14--14--14----14---|
C#|----------------------------------------------------------|

D#|-------0-------------0-------------------------------------|
A#|-------0-------------0--------------0--------------0-------|
F#|-----------------------------------------------------------|
C#|---9-----9---9---9-----9---9---12-----12--12---7-----7---7-|
G#|-7---7-----7---7---7-----7---10--10-----10---5---5-----5---|
C#|-----------------------------------------------------------|

D#|----------------------------------------------------------|
A#|-------0-------------0-------------14------------14-------|
F#|----------------------------------------------------------|
C#|---4-----4---4---4-----4---4---12----12--12--12----12--12-|
G#|-2---2-----2---2---2-----2---14--14----14--14--14----14---|
C#|----------------------------------------------------------|

D#|-------0-------------0-------------------------------|
A#|-------0-------------0-------------------------------|
F#|-----------------------------------------------------|
C#|---9-----9---9---9-----9---9--2-2---5-5---2-2---7-7--|
G#|-7---7-----7---7---7-----7----2-2---5-5---2-2---7-7--|
C#|------------------------------2-2---5-5---2-2---7-7--|

Chorus 
D#|--------------------------|
A#|--------------------------|
F#|-11c----7c----9c----4c----|
C#|--9c----5c----7c----2c----|
G#|--9c----5c----7c----2c----|
C#|--9c----5c----7c----2c----|

D#|--------------------------------------|
A#|--------------------------------------|
F#|-11-11-11--7-7-7--9-9-9--4~-4~-4~-4~--|
C#|--9--9--9--5-5-5--7-7-7--2~-2~-2~-2~--|
G#|--9--9--9--5-5-5--7-7-7--2~-2~-2~-2~--|
C#|--9--9--9--5-5-5--7-7-7--2~-2~-2~-2~--|

Break
D#|-----------------------------------------|
A#|-----------------------------------------|
F#|-----------------------------------------|
C#|-9-9--9-9--9-9--9-9--9-9--9-9--9-9--9-9--|
G#|-9-9--9-9--9-9--9-9--9-9--9-9--9-9--9-9--|
C#|-9-9--9-9--9-9--9-9--9-9--9-9--9-9--9-9--|
  | . .  . .  . .  . .  . .  . .  . .  . .

(times 2)
D#|---------------------------------------------------------|
A#|---------------------------------------------------------|
F#|-11-11--11-11--11-11--11-11--11-11--11-11--11-11---7--7--|
C#|--9--9---9--9---9--9---9--9---9--9---9--9---9--9---5--5--|
G#|--9--9---9--9---9--9---9--9---9--9---9--9---9--9---5--5--|
C#|--9--9---9--9---9--9---9--9---9--9---9--9---9--9---5--5--|

Bridge
D#|------------------------------------------------------|
A#|------------------------------------------------------|
F#|-------------------------------------11c------9c------|
C#|--2-2------2-2------5-5------5-5------9c------7c------| (Times 2)
G#|--2-2------2-2------5-5------5-5------9c------7c------|
C#|--2-2------2-2------5-5------5-5------9c------7c------|
  |  . .      . .      . .      . .

Pre-Outro
D#|----------------------------------|
A#|----------------------------------|
F#|----------------------------------|
C#|---------------5-5-5-5-5-5-5-5-5--|
G#|-5-5-5-5-5-5-5-5-5-5-5-5-5-5-5-5--|
C#|-5-5-5-5-5-5-5-5-5-5-5-5-5-5-5-5--|
  | . . . . . . . . . . . .
 
Outro
D#|-------------------------------------------------|
A#|-------------------------------------------------|
F#|-2c----7c----9c----4c----2c----7c----9c----4c----|
C#|-0c----5c----7c----2c----0c----5c----7c----2c----|
G#|-0c----5c----7c----2c----0c----5c----7c----2c----|
C#|-0c----5c----7c----2c----0c----5c----7c----2c----|

D#|--------------------------------------|
A#|--------------------------------------|
F#|-11-11-11--7-7-7--9-9-9--4~-4~-4~-4~--|
C#|--9--9--9--5-5-5--7-7-7--2~-2~-2~-2~--|
G#|--9--9--9--5-5-5--7-7-7--2~-2~-2~-2~--|
C#|--9--9--9--5-5-5--7-7-7--2~-2~-2~-2~--|

D#|-----------------------------------------------------------------|
A#|-----------------------------------------------------------------|
F#|-----------------------------------------------------------------|
C#|---------0---------------0---------------5---------------5-------|
G#|---------0---------------0---------------5---------------5-------|
C#|-0-0-0-0-0-0-0-0-0-0-0-0-0-0-0-0-5-5-5-5-5-5-5-5-5-5-5-5-5-5-5-5-|
  | . . . .   . . . . . . .   . . . . . . .   . . . . . . .   . . .

D#|-----------------------------------------------------------------|
A#|-----------------------------------------------------------------|
F#|-----------------------------------------------------------------|
C#|---------7---------------7---------------2---------------2-------|
G#|---------7---------------7---------------2---------------2-------|
C#|-7-7-7-7-7-7-7-7-7-7-7-7-7-7-7-7-2-2-2-2-2-2-2-2-2-2-2-2-2-2-2-2-|
  | . . . .   . . . . . . .   . . . . . . .   . . . . . . .   . . .

D#|------|
A#|------|
F#|--7~--|
C#|--5~--|
G#|--5~--|
C#|--5~--|


**************************************************************************

<>

Intro (Times 2)
|------5----5----5----5-------------3-----3------3-----3-------|
|---3----3----3----3----3-------3-----3------3------3----3-----|
|-4---4----4----4----4----4---4---4------4-----4------4----4---|
|--------------------------------------------------------------|
|--------------------------------------------------------------|
|--------------------------------------------------------------|

|-------2----2----2----2-------------3-----3-----3------3------|
|---3-----3----3----3----3-------3-----3-----3-----3------3----|
|-4---4-----4----4----4----4---4---4-----4-----4-----4-----4---|
|--------------------------------------------------------------|
|--------------------------------------------------------------|
|--------------------------------------------------------------|

Verse (Times 2)
|------5----5----5----5-------------3-----3------3-----3-------|
|---3----3----3----3----3-------3-----3------3------3----3-----|
|-4---4----4----4----4----4---4---4------4-----4------4----4---|
|--------------------------------------------------------------|
|--------------------------------------------------------------|
|--------------------------------------------------------------|

|-------2----2----2----2-------------3-----3-----3------3------|
|---3-----3----3----3----3-------3-----3-----3-----3------3----|
|-4---4-----4----4----4----4---4---4-----4-----4-----4-----4---|
|--------------------------------------------------------------|
|--------------------------------------------------------------|
|--------------------------------------------------------------|

Chorus (Times 2)
D#|-----------------------------------------|
A#|-----------------------------------------|
F#|-11-11-11--7-7-7--9-9-9------------------|
C#|--9--9--9--5-5-5--7-7-7--2b--2b--2b--2b--|
G#|--9--9--9--5-5-5--7-7-7--2b--2b--2b--2b--|
C#|--9--9--9--5-5-5--7-7-7--2b--2b--2b--2b--|

Verse
|------5----5----5----5-------------3-----3------3-----3-------|
|---3----3----3----3----3-------3-----3------3------3----3-----|
|-4---4----4----4----4----4---4---4------4-----4------4----4---|
|--------------------------------------------------------------|
|--------------------------------------------------------------|
|--------------------------------------------------------------|

|-------2----2----2----2-------------3-----3-----3------3------|
|---3-----3----3----3----3-------3-----3-----3-----3------3----|
|-4---4-----4----4----4----4---4---4-----4-----4-----4-----4---|
|--------------------------------------------------------------|
|--------------------------------------------------------------|
|--------------------------------------------------------------|

|------5----5----5----5-------------3-----3------3-----3-------|
|---3----3----3----3----3-------3-----3------3------3----3-----|
|-4---4----4----4----4----4---4---4------4-----4------4----4---|
|--------------------------------------------------------------|
|--------------------------------------------------------------|
|--------------------------------------------------------------|

|------5----5----5----5---------------------------------------|
|---3----3----3----3----3-------------------------------------|
|-4---4----4----4----4----4-----------------------------------|
|----------------------------2-2-x-x-5-5-x-x-2-2-x-x-7-7-x-x--|
|----------------------------2-2-x-x-5-5-x-x-2-2-x-x-7-7-x-x--|
|----------------------------2-2-x-x-5-5-x-x-2-2-x-x-7-7-x-x--|

Chorus
D#|--------------------------|
A#|--------------------------|
F#|-11c----7c----9c----4c----|
C#|--9c----5c----7c----2c----|
G#|--9c----5c----7c----2c----|
C#|--9c----5c----7c----2c----|

D#|-----------------------------------------|
A#|-----------------------------------------|
F#|-11-11-11--7-7-7--9-9-9------------------|
C#|--9--9--9--5-5-5--7-7-7--2b--2b--2b--2b--|
G#|--9--9--9--5-5-5--7-7-7--2b--2b--2b--2b--|
C#|--9--9--9--5-5-5--7-7-7--2b--2b--2b--2b--|

Break
D#|-----------------|
A#|-----------------|
F#|------REST-------|
C#|-----------------|
G#|-----------------|
C#|-----------------|

(times 2)
D#|---------------------------------------------------------|
A#|---------------------------------------------------------|
F#|-11-11--11-11--11-11--11-11--11-11--11-11--11-11---7--7--|
C#|--9--9---9--9---9--9---9--9---9--9---9--9---9--9---5--5--|
G#|--9--9---9--9---9--9---9--9---9--9---9--9---9--9---5--5--|
C#|--9--9---9--9---9--9---9--9---9--9---9--9---9--9---5--5--|

Bridge (Times 2)
|------------------------------------------------------------------|
|------------------------------------------------------------------|
|------------------------------------------------------------------|
|-----4-2-4-2---------4-2-4-2---------7-5-7-5---------7-5-7-5------|
|-2-2---------4-2-2-2---------4-2-5-5---------7-5-5-5---------7-5--|
|-2-2-------------2-2-------------5-5-------------5-5--------------|
| . .             . .             . .             . .

D#|--------------|
A#|--------------|
F#|-11c----9c----|
C#|--9c----7c----|
G#|--9c----7c----|
C#|--9c----7c----|

|------------------------------------------------------------------|
|------------------------------------------------------------------|
|------------------------------------------------------------------|
|-----4-2-4-2---------4-2-4-2---------7-5-7-5---------7-5-7-5------|
|-2-2---------4-2-2-2---------4-2-5-5---------7-5-5-5---------7-5--|
|-2-2-------------2-2-------------5-5-------------5-5--------------|
| . .             . .             . .             . .

D#|--------------|
A#|--------------|
F#|-11c----9c----|
C#|--9c----7c----|
G#|--9c----7c----|
C#|--9c----7c----|

Pre-Outro
D#|----------------------------------|
A#|----------------------------------|
F#|----------------------------------|
C#|---------------5-5-5-5-5-5-5-5-5--|
G#|-5-5-5-5-5-5-5-5-5-5-5-5-5-5-5-5--|
C#|-5-5-5-5-5-5-5-5-5-5-5-5-5-5-5-5--|
  | . . . . . . . . . . . .

Outro (Times 6)
|---------10------------10---------------------10------------10-------------|
|-----12-------12------------12-----------12--------12------------12--------|
|-11----------------11------------11--11-----------------11-----------11----|
|---------------------------------------------------------------------------|
|---------------------------------------------------------------------------|
|---------------------------------------------------------------------------|

*Then*
D#|-----------------------------------------------------------------|
A#|-----------------------------------------------------------------|
F#|-----------------------------------------------------------------|
C#|---------0---------------0---------------5---------------5-------|
G#|---------0---------------0---------------5---------------5-------|
C#|-0-0-0-0-0-0-0-0-0-0-0-0-0-0-0-0-5-5-5-5-5-5-5-5-5-5-5-5-5-5-5-5-|
  | . . . .   . . . . . . .   . . . . . . .   . . . . . . .   . . .

D#|-----------------------------------------------------------------|
A#|-----------------------------------------------------------------|
F#|-----------------------------------------------------------------|
C#|---------7---------------7---------------2---------------2-------|
G#|---------7---------------7---------------2---------------2-------|
C#|-7-7-7-7-7-7-7-7-7-7-7-7-7-7-7-7-2-2-2-2-2-2-2-2-2-2-2-2-2-2-2-2-|
  | . . . .   . . . . . . .   . . . . . . .   . . . . . . .   . . .

D#|------|
A#|------|
F#|--7~--|
C#|--5~--|
G#|--5~--|
C#|--5~--|


| b  bend
| /  slide up
| \  slide down
| h  hammer-on
| p  pull-off
| ~  let ring
| +  harmonic
| x  Mute note
===============================================================================
Tap to rate this tab
# A B C D E F G H I J K L M N O P Q R S T U V W X Y Z