Song name
# A B C D E F G H I J K L M N O P Q R S T U V W X Y Z

Fightstar - Zihuatanejo tab

This is my first tab, so I imagine this is not perfect by any means. Seeing as no-one 
tabbed this, frankly awesome, song however, I thought I'd give it a go.

Fightstar - Zihuatanejo (Alternate Endings)
Tabbed by: sut_69

Standard Tuning
INTRO
e|-------------------------5-------------------------------------------------|
B|-----6--------6--------6---6p5---------------------------------------------|
G|---7--------7--------7---------7--------(x2)-------------------------------|
D|-7--------7--------7-------------------------------------------------------|
A|---------------------------------------------------------------------------|
E|---------------------------------------------------------------------------|
VERSE
e|-------1-------1--------1--------1-------7--------7--------7--------7------|
B|---3-------3--------3--------3-------8--------8--------8--------8----------|
G|-2---2-------2--------2--------2---7---7--------7--------7--------7----(x2)|
D|---------------------------------------------------------------------------|
A|---------------------------------------------------------------------------|
E|---------------------------------------------------------------------------|

e|----------10----------10----------10----------10---------------------------|
B|----12----------12----------12----------12---------------------------------|
G|-11----11----------11----------11----------11-------------(x2)-------------|
D|---------------------------------------------------------------------------|
A|---------------------------------------------------------------------------|
E|---------------------------------------------------------------------------|

e|----------14----------14----------14----------14---------------------------|
B|----15----------15----------15----------15---------------------------------|
G|-14----14----------14----------14----------14-------------(x4)-------------|
D|---------------------------------------------------------------------------|
A|---------------------------------------------------------------------------|
E|---------------------------------------------------------------------------|

e|-2----3p2-----------3p2-------2----3p2----------3p2------------------------|
B|-3--------3-------3-----3-----3--------3------3-----3----------------------|
G|-2----------2-------------2---2----------2------------2--------------------|
D|-0----------------------------0--------------------------------------------|
A|---------------------------------------------------------------------------|
E|---------------------------------------------------------------------------|
CHORUS
e|-2-2-2-2-2-2-2-2-3-3-3-3-3-3-3-3-3-3-3-3-3-3-3-3-2-------------------------|
B|-3-3-3-3-3-3-3-3-3-3-3-3-3-3-3-3-3-3-3-3-3-3-3-3-3-------------------------|
G|-2-2-2-2-2-2-2-2-0-0-0-0-0-0-0-0-0-0-0-0-0-0-0-0-2-------------------------|
D|-0-0-0-0-0-0-0-0-0-0-0-0-0-0-0-0-0-0-0-0-0-0-0-0-0-------------------------|
A|-----------------2-2-2-2-2-2-2-2-2-2-2-2-2-2-2-2---------------------------|
E|-----------------3-3-3-3-3-3-3-3-3-3-3-3-3-3-3-3---------------------------|

e|-2-2-2-2-2-2-2-2-3-3-3-3-3-3-3-3-3-3-3-3-3-3-3-3-2-2-2-2-2-2-2-2-----2-----|
B|-3-3-3-3-3-3-3-3-3-3-3-3-3-3-3-3-3-3-3-3-3-3-3-3-3-3-3-3-3-3-3-3-----3-----|
G|-2-2-2-2-2-2-2-2-0-0-0-0-0-0-0-0-0-0-0-0-0-0-0-0-2-2-2-2-2-2-2-2-----2-----|
D|-0-0-0-0-0-0-0-0-0-0-0-0-0-0-0-0-0-0-0-0-0-0-0-0-0-0-0-0-0-0-0-0-----0-----|
A|-----------------2-2-2-2-2-2-2-2-2-2-2-2-2-2-2-2---------------------------|
E|-----------------3-3-3-3-3-3-3-3-3-3-3-3-3-3-3-3---------------------------|

Repeat all this x1
then
BRIDGE
e|-------2-------2-------2--------2------------------------------------------|
B|---3-------3-------3--------3----------------------------------------------|
G|-2---2-------2-------2--------2----------(x8)------------------------------|
D|---------------------------------------------------------------------------|
A|---------------------------------------------------------------------------|
E|---------------------------------------------------------------------------|

and Repeat CHORUS x1

END

| /  slide up
| \  slide down
| h  hammer-on
| p  pull-off
| ~  vibrato
| +  harmonic
| x  Mute note
===============================================================================
Tap to rate this tab
# A B C D E F G H I J K L M N O P Q R S T U V W X Y Z